Sound will begin in 5 seconds

andy-james-full-shred-ahead---series-two---combining-sweep-picking-str

01234567891011121314151617181920212223
E
B
G
D
A
E
B
0 1 2 3 4 5 6 7 8 9 10 11 12 13 14 15 16 17 18 19 20 21 22 23
Song Science #1: How Pros Use 6 Chords to Write Hit Songs
(/) Slide Up  (\) Slide Down  (h) Hammer On  (p) Pull Off  (b) Bend (r) Release (v) Vibrato

Stave 1:

E|----------------------------12--15--12----------------------12--15/19--15--------------------------12--15--12--------------------------|--------------------------12--16--12----------------------12--
B|---------------------------------------------------------------------------17----------------------------------------------------------|--------------------------------------------------------------
G|--------------------12--16--------------16--12------12--16---------------------16--12------12--16--------------16--12------------------|------------------13--16--------------16--13------13--16------
D|----------------14------------------------------14-------------------------------------14------------------------------14--------------|--------------14------------------------------14--------------
A|--------10--14-------------------------------------------------------------------------------------------------------------14--10------|------11--14--------------------------------------------------
E|----12-----------------------------------------------------------------------------------------------------------------------------12--|--12----------------------------------------------------------

Stave 2:

E|--16/19--16--------------------------12--16--12--------------------------
B|-------------17----------------------------------------------------------
G|-----------------16--13------13--16--------------16--13------------------
D|-------------------------14------------------------------14--------------
A|-------------------------------------------------------------14--11------
E|---------------------------------------------------------------------12--

Stave 3:

E|-------------------------9--12--9--------------------9--12--15----------------------------------
B|----------------------------------------------------------------14------------------------------
G|------------------9--12------------12--9------9--12-----------------15--12----------------------
D|--------------11--------------------------11--------------------------------14--11--------------
A|------10--13------------------------------------------------------------------------13--10------
E|--12----------------------------------------------------------------------------------------12--

http://www.guitartabcreator.com
Guitar Tab Creator is intended to store guitar tab created through the tool. It currently does not support in-line text editing. Any text you place in here will be lost. If you need to comment on your tab, please use the "Tab Notes" section located below.