Sound will begin in 5 seconds

andy-james-full-shred-ahead---series-nine---spicing-up-the-pentatonics

01234567891011121314151617181920212223
E
B
G
D
A
E
B
0 1 2 3 4 5 6 7 8 9 10 11 12 13 14 15 16 17 18 19 20 21 22 23
Song Science #1: How Pros Use 6 Chords to Write Hit Songs
(/) Slide Up  (\) Slide Down  (h) Hammer On  (p) Pull Off  (b) Bend (r) Release (v) Vibrato

Stave 1:

E|--------------------------------------------------|----------------------------------
B|--------------------------------------------------|----------------------------------
G|------------------------------------------12--15--|----------14--15----------15--16--
D|------------------12--14----------12--14----------|--14--17----------14--17----------
A|----------12--13----------12--13------------------|----------------------------------
E|--12--15------------------------------------------|----------------------------------

Stave 2:

E|--------------------------15--18--15------------------
B|------------------15--17--------------17--15------17--
G|----------15--16------------------------------16------
D|--14--17----------------------------------------------
A|------------------------------------------------------
E|------------------------------------------------------

Stave 3:

E|--18--19--18--15------------------|--------------------------|----------------------------------------------------------------------------------------------
B|------------------17--15----------|--17--15------------------|----------------------------------------------------------------------------------------------
G|--------------------------16--15--|----------16--15----------|--16--15----------14--12--14--12--------------------------------------------------------------
D|----------------------------------|------------------17--14--|----------17--14------------------14--12----------14--12--------------------------------------
A|----------------------------------|--------------------------|------------------------------------------14--12----------14--12----------13--10--------------
E|----------------------------------|--------------------------|------------------------------------------------------------------15--12----------12--10--12--

http://www.guitartabcreator.com
Guitar Tab Creator is intended to store guitar tab created through the tool. It currently does not support in-line text editing. Any text you place in here will be lost. If you need to comment on your tab, please use the "Tab Notes" section located below.