Skip to main content

L12

0 1 2 3 4 5 6 7 8 9 10 11 12 13 14 15 16 17 18 19 20 21 22 23
E
B
G
D
A
E
0 1 2 3 4 5 6 7 8 9 10 11 12 13 14 15 16 17 18 19 20 21 22 23
(/) Slide Up  (\) Slide Down  (h) Hammer On  (p) Pull Off  (b) Bend (r) Release (v) Vibrato

Capo Fret 4

Stave 1:

E|--------------------------------------------------------7--4--------------------------------------
B|--------------------------------------7--4--------------------7--5--4-----------------------------
G|-----------------------8--4-----------------6--4-----------------------6--4--6/8\6p4--------------
D|--------9--6--4--------------6--4--------------------6--------------------------------6/7\6p4-----
A|--7--4-----------7--4--------------7-----------------------------------------------------------7--
E|--------------------------------------------------------------------------------------------------

Stave 2:

E|---------------------------------------------------------------------------------------
B|-------9-----------------12-----------------7-----------------9-----------------12-----
G|--8/9-----4--8/9p4--8/9------4--8/9p4--8/9-----4--8/9p4--8/9-----4--8/9p4--8/9------4--
D|---------------------------------------------------------------------------------------
A|---------------------------------------------------------------------------------------
E|---------------------------------------------------------------------------------------

Stave 3:

E|--------------------------------------------------7--4--------------------------------------
B|--------------------------------------7--4--------------7--5--4-----------------------------
G|-----------------------8--4-----------------4--------------------6--4--6/8\6p4--------------
D|--------9--6--4--------------6--4--------------6--------------------------------6/7\6p4-----
A|--7--4-----------7--4--------------7-----------------------------------------------------7--
E|--------------------------------------------------------------------------------------------

Stave 4:

E|---------------------------------------------------------------------------------------:|--
B|-------9-----------------12-----------------7-----------------9-----------------12-----:|--
G|--8/9-----4--8/9p4--8/9------4--8/9p4--8/9-----4--8/9p4--8/9-----4--8/9p4--8/9------4--:|--
D|---------------------------------------------------------------------------------------:|--
A|---------------------------------------------------------------------------------------:|--
E|---------------------------------------------------------------------------------------:|--

							https://www.guitartabcreator.com
Chords

Instruments
{"strings":[[[".",".",".",".",".",".",".",".",".",".",".",".",".",".",".",".",".",".",7,4,".",".",".",".",".",".",".",".",".",".",".",".",".",".",".",".",".",".",".","."],[".",".",".",".",".",".",".",".",".",".",".",".",7,4,".",".",".",".",".",".",7,5,4,".",".",".",".",".",".",".",".",".",".",".",".",".",".",".",".","."],[".",".",".",".",".",".",".",8,4,".",".",".",".",".",6,4,".",".",".",".",".",".",".",6,4,6,"/",8,"\\",6,"p",4,".",".",".",".",".",".",".","."],[".",".",9,6,4,".",".",".",".",6,4,".",".",".",".",".",".",6,".",".",".",".",".",".",".",".",".",".",".",".",".",".",6,"/",7,"\\",6,"p",4,"."],[7,4,".",".",".",7,4,".",".",".",".",7,".",".",".",".",".",".",".",".",".",".",".",".",".",".",".",".",".",".",".",".",".",".",".",".",".",".",".",7],[".",".",".",".",".",".",".",".",".",".",".",".",".",".",".",".",".",".",".",".",".",".",".",".",".",".",".",".",".",".",".",".",".",".",".",".",".",".",".","."]],[[".",".",".",".",".",".",".",".",".",".",".",".",".",".",".",".",".",".",".",".",".",".",".",".",".",".",".",".",".",".",".",".",".",".",".",".",".",".",".",".",".",".",".",".","."],[".",".",".",9,".",".",".",".",".",".",".",".",".",12,".",".",".",".",".",".",".",".",".",7,".",".",".",".",".",".",".",".",".",9,".",".",".",".",".",".",".",".",".",12,"."],[8,"/",9,".",4,8,"/",9,"p",4,8,"/",9,".",4,8,"/",9,"p",4,8,"/",9,".",4,8,"/",9,"p",4,8,"/",9,".",4,8,"/",9,"p",4,8,"/",9,".",4],[".",".",".",".",".",".",".",".",".",".",".",".",".",".",".",".",".",".",".",".",".",".",".",".",".",".",".",".",".",".",".",".",".",".",".",".",".",".",".",".",".",".",".",".","."],[".",".",".",".",".",".",".",".",".",".",".",".",".",".",".",".",".",".",".",".",".",".",".",".",".",".",".",".",".",".",".",".",".",".",".",".",".",".",".",".",".",".",".",".","."],[".",".",".",".",".",".",".",".",".",".",".",".",".",".",".",".",".",".",".",".",".",".",".",".",".",".",".",".",".",".",".",".",".",".",".",".",".",".",".",".",".",".",".",".","."]],[[".",".",".",".",".",".",".",".",".",".",".",".",".",".",".",".",7,4,".",".",".",".",".",".",".",".",".",".",".",".",".",".",".",".",".",".",".","."],[".",".",".",".",".",".",".",".",".",".",".",".",7,4,".",".",".",".",7,5,4,".",".",".",".",".",".",".",".",".",".",".",".",".",".",".",".","."],[".",".",".",".",".",".",".",8,4,".",".",".",".",".",4,".",".",".",".",".",".",6,4,6,"/",8,"\\",6,"p",4,".",".",".",".",".",".",".","."],[".",".",9,6,4,".",".",".",".",6,4,".",".",".",".",6,".",".",".",".",".",".",".",".",".",".",".",".",".",".",6,"/",7,"\\",6,"p",4,"."],[7,4,".",".",".",7,4,".",".",".",".",7,".",".",".",".",".",".",".",".",".",".",".",".",".",".",".",".",".",".",".",".",".",".",".",".",".",7],[".",".",".",".",".",".",".",".",".",".",".",".",".",".",".",".",".",".",".",".",".",".",".",".",".",".",".",".",".",".",".",".",".",".",".",".",".","."]],[[".",".",".",".",".",".",".",".",".",".",".",".",".",".",".",".",".",".",".",".",".",".",".",".",".",".",".",".",".",".",".",".",".",".",".",".",".",".",".",".",".",".",".",".",".",":|"],[".",".",".",9,".",".",".",".",".",".",".",".",".",12,".",".",".",".",".",".",".",".",".",7,".",".",".",".",".",".",".",".",".",9,".",".",".",".",".",".",".",".",".",12,".",":|"],[8,"/",9,".",4,8,"/",9,"p",4,8,"/",9,".",4,8,"/",9,"p",4,8,"/",9,".",4,8,"/",9,"p",4,8,"/",9,".",4,8,"/",9,"p",4,8,"/",9,".",4,":|"],[".",".",".",".",".",".",".",".",".",".",".",".",".",".",".",".",".",".",".",".",".",".",".",".",".",".",".",".",".",".",".",".",".",".",".",".",".",".",".",".",".",".",".",".",".",":|"],[".",".",".",".",".",".",".",".",".",".",".",".",".",".",".",".",".",".",".",".",".",".",".",".",".",".",".",".",".",".",".",".",".",".",".",".",".",".",".",".",".",".",".",".",".",":|"],[".",".",".",".",".",".",".",".",".",".",".",".",".",".",".",".",".",".",".",".",".",".",".",".",".",".",".",".",".",".",".",".",".",".",".",".",".",".",".",".",".",".",".",".",".",":|"]]],"numberofstrings":6,"notes":["E","B","G","D","A","E","B"],"capo":"4","stringnotes":["E4","B3","G3","D3","A2","E2"],"comments":["Stave 1:","Stave 2:","Stave 3:","Stave 4:"],"timing":[["Q","Q","Q","Q","Q","Q","Q","Q","Q","Q","Q","Q","Q","Q","Q","Q",null,"Q","Q","Q","Q","Q","Q","Q","Q","Q",null,"Q",null,"Q",null,"Q","Q",null,"Q",null,"Q",null,"Q","Q"],["Q",null,"Q","Q","Q","Q",null,"Q",null,"Q","Q",null,"Q","Q","Q","Q",null,"Q",null,"Q","Q",null,"Q","Q","Q","Q",null,"Q",null,"Q","Q",null,"Q","Q","Q","Q",null,"Q",null,"Q","Q",null,"Q","Q","Q"],["Q","Q","Q","Q","Q","Q","Q","Q","Q","Q","Q","Q","Q","Q","Q","Q","Q","Q","Q","Q","Q","Q","Q","Q",null,"Q",null,"Q",null,"Q","Q",null,"Q",null,"Q",null,"Q","Q"],["Q",null,"Q","Q","Q","Q",null,"Q",null,"Q","Q",null,"Q","Q","Q","Q",null,"Q",null,"Q","Q",null,"Q","Q","Q","Q",null,"Q",null,"Q","Q",null,"Q","Q","Q","Q",null,"Q",null,"Q","Q",null,"Q","Q","Q"]],"timingvisible":false,"tabcounter":46,"stave":3,"totalstaves":4,"instrument":"6guitar","selectedtuning":"6_standard","version":"13"}
Submitted by Martin Savolainen on