You Make Loving Fun Solo

01234567891011121314151617181920212223
E
B
G
D
A
E
B
0 1 2 3 4 5 6 7 8 9 10 11 12 13 14 15 16 17 18 19 20 21 22 23
(/) Slide Up  (\) Slide Down  (h) Hammer On  (p) Pull Off  (b) Bend (r) Release (v) Vibrato

Stave 1:

E|-----------------|---------4-------|-5h7-7-7b8r7---|-7b8r7p5h7-------------|-
B|-----------------|-5h7-5-7---7-----|---------------|-----------7-7p5-7-7---|-
G|-4b6r4p2-4-------|-----------------|---------------|-----------------------|-
D|-----------4-----|-----------------|---------------|-----------------------|-
A|-----------------|-----------------|---------------|-----------------------|-
E|-----------------|-----------------|---------------|-----------------------|-

Stave 2:

E|-14-14-14-14-14-14-14-14-17b19-17b19-14-14-------------------------
B|-------------------------------------------17b18r17p15-------------
G|-------------------------------------------------------16-14-------
D|-------------------------------------------------------------16-14-
A|-------------------------------------------------------------------
E|-------------------------------------------------------------------

Stave 3:

E|-12b14-12b14p10----------------------------------------------|-
B|----------------12-10---10---10---10-10-12b14r12-10-10-------|-
G|-------------------------------------------------------------|-
D|-------------------------------------------------------------|-
A|-------------------------------------------------------------|-
E|-------------------------------------------------------------|-

							http://www.guitartabcreator.com
Chords

Instruments
{"strings":[[[".",".",".",".",".",".",".",".",".","_","_","|",".",".",".",".",".",4,".","_","_","|",5,"h",7,7,7,"b",8,"r",7,"_","|",7,"b",8,"r",7,"p",5,"h",7,".",".",".",".",".",".","_","|"],[".",".",".",".",".",".",".",".",".","_","_","|",5,"h",7,5,7,".",7,"_","_","|",".",".",".",".",".",".",".",".",".","_","|",".",".",".",".",".",".",".",".",".",7,7,"p",5,7,7,"_","|"],[4,"b",6,"r",4,"p",2,4,".","_","_","|",".",".",".",".",".",".",".","_","_","|",".",".",".",".",".",".",".",".",".","_","|",".",".",".",".",".",".",".",".",".",".",".",".",".",".",".","_","|"],[".",".",".",".",".",".",".",".",4,"_","_","|",".",".",".",".",".",".",".","_","_","|",".",".",".",".",".",".",".",".",".","_","|",".",".",".",".",".",".",".",".",".",".",".",".",".",".",".","_","|"],[".",".",".",".",".",".",".",".",".","_","_","|",".",".",".",".",".",".",".","_","_","|",".",".",".",".",".",".",".",".",".","_","|",".",".",".",".",".",".",".",".",".",".",".",".",".",".",".","_","|"],[".",".",".",".",".",".",".",".",".","_","_","|",".",".",".",".",".",".",".","_","_","|",".",".",".",".",".",".",".",".",".","_","|",".",".",".",".",".",".",".",".",".",".",".",".",".",".",".","_","|"]],[[14,14,14,14,14,14,14,14,17,"b",19,17,"b",19,14,14,".",".","_",".","_","_","_",".",".","_","_"],[".",".",".",".",".",".",".",".",".",".",".",".",".",".",".",".",17,"b",18,"r",17,"p",15,".",".","_","_"],[".",".",".",".",".",".",".",".",".",".",".",".",".",".",".",".",".",".","_",".","_","_","_",16,14,"_","_"],[".",".",".",".",".",".",".",".",".",".",".",".",".",".",".",".",".",".","_",".","_","_","_",".",".",16,14],[".",".",".",".",".",".",".",".",".",".",".",".",".",".",".",".",".",".","_",".","_","_","_",".",".","_","_"],[".",".",".",".",".",".",".",".",".",".",".",".",".",".",".",".",".",".","_",".","_","_","_",".",".","_","_"]],[[12,"b",14,12,"b",14,"p",10,".",".","_",".","_",".","_",".",".",".",".",".",".",".",".",".","_","_","_","|"],[".",".",".",".",".",".",".",".",12,10,"_",10,"_",10,"_",10,10,12,"b",14,"r",12,10,10,"_","_","_","|"],[".",".",".",".",".",".",".",".",".",".","_",".","_",".","_",".",".",".",".",".",".",".",".",".","_","_","_","|"],[".",".",".",".",".",".",".",".",".",".","_",".","_",".","_",".",".",".",".",".",".",".",".",".","_","_","_","|"],[".",".",".",".",".",".",".",".",".",".","_",".","_",".","_",".",".",".",".",".",".",".",".",".","_","_","_","|"],[".",".",".",".",".",".",".",".",".",".","_",".","_",".","_",".",".",".",".",".",".",".",".",".","_","_","_","|"]]],"numberofstrings":6,"notes":["E","B","G","D","A","E","B"],"capo":0,"stringnotes":["E4","B3","G3","D3","A2","E2"],"comments":["Stave 1:","Stave 2:","Stave 3:"],"timing":[["W",null,"W",null,"W",null,"W","W","W","W","W",null,"W",null,"W","W","W","W","W","W","W",null,"W",null,"W","W","W",null,"W",null,"W","W",null,"W",null,"W",null,"W",null,"W",null,"W","W","W",null,"W","W","W","W"],["W","W","W","W","W","W","W","W","W",null,"W","W",null,"W","W","W","W","W","W","W","W","W","W",null,"W","W","W"],["W",null,"W","W",null,"W",null,"W","W","W","W","W","W","W","W","W","W","W",null,"W",null,"W","W","W","W","W","W"]],"timingvisible":false,"tabcounter":28,"stave":2,"totalstaves":3,"instrument":"6guitar","selectedtuning":"6_standard","version":"13"}

Member for

3 years 6 months
Submitted by Marobozu on Wed, 2021-08-04 14:16