Bad Case Of Loving You - Robert Palmer

01234567891011121314151617181920212223
E
B
G
D
A
E
B
0 1 2 3 4 5 6 7 8 9 10 11 12 13 14 15 16 17 18 19 20 21 22 23
(/) Slide Up  (\) Slide Down  (h) Hammer On  (p) Pull Off  (b) Bend (r) Release (v) Vibrato

Stave 1:

E|----------------------|-------------------------------|----------------------|--
B|---------17b19r17\14--|-----------------17------------|----------------------|--
G|--14h16---------------|--14--16--16b18------16b18r16--|--14--16--14--16--14--|--
D|----------------------|-------------------------------|----------------------|--
A|----------------------|-------------------------------|----------------------|--
E|----------------------|-------------------------------|----------------------|--

Stave 2:

E|--------------------------------|-------------------------|------------|--
B|--16--17--17b19r17--15--16------|-------------------------|------------|--
G|----------------------------16--|--14b16--14------16--15--|--14--------|--
D|--------------------------------|-------------16----------|------------|--
A|--------------------------------|-------------------------|------------|--
E|--------------------------------|-------------------------|------------|--

							http://www.guitartabcreator.com
Chords

Instruments
{"strings":[[[".",".",".",".",".",".",".",".",".",".","|",".",".",".",".",".",".",".",".",".",".",".","|",".",".",".",".",".","|"],[".",".",".",17,"b",19,"r",17,"\\",14,"|",".",".",".",".",".",17,".",".",".",".",".","|",".",".",".",".",".","|"],[14,"h",16,".",".",".",".",".",".",".","|",14,16,16,"b",18,".",16,"b",18,"r",16,"|",14,16,14,16,14,"|"],[".",".",".",".",".",".",".",".",".",".","|",".",".",".",".",".",".",".",".",".",".",".","|",".",".",".",".",".","|"],[".",".",".",".",".",".",".",".",".",".","|",".",".",".",".",".",".",".",".",".",".",".","|",".",".",".",".",".","|"],[".",".",".",".",".",".",".",".",".",".","|",".",".",".",".",".",".",".",".",".",".",".","|",".",".",".",".",".","|"]],[[".",".",".",".",".",".",".",".",".",".","|",".",".",".",".",".",".",".","|",".","_","_","|"],[16,17,17,"b",19,"r",17,15,16,".","|",".",".",".",".",".",".",".","|",".","_","_","|"],[".",".",".",".",".",".",".",".",".",16,"|",14,"b",16,14,".",16,15,"|",14,"_","_","|"],[".",".",".",".",".",".",".",".",".",".","|",".",".",".",".",16,".",".","|",".","_","_","|"],[".",".",".",".",".",".",".",".",".",".","|",".",".",".",".",".",".",".","|",".","_","_","|"],[".",".",".",".",".",".",".",".",".",".","|",".",".",".",".",".",".",".","|",".","_","_","|"]]],"numberofstrings":6,"notes":["E","B","G","D","A","E","B"],"capo":0,"stringnotes":["E4","B3","G3","D3","A2","E2"],"comments":["Stave 1:","Stave 2:"],"timing":[["W",null,"W","W",null,"W",null,"W",null,"W",null,"W","W","W",null,"W","W","W",null,"W",null,"W",null,"W","W","W","W","W",null,"W","W","W",null,"W",null,"W","W","W","W",null,"W",null,"W","W","W","W","W","W",null,null,"W"],["W","W","W",null,"W",null,"W","W","W","W",null,"W",null,"W","W","W","W","W","W","W"]],"timingvisible":false,"tabcounter":29,"stave":0,"totalstaves":2,"instrument":"6guitar","selectedtuning":"6_standard","version":"13"}

Member for

3 years 1 month
Submitted by Marobozu on Wed, 2021-03-03 19:07