Sound will begin in 5 seconds

How Will I Know

Chords
01234567891011121314151617181920212223
E
B
G
D
A
E
B
0 1 2 3 4 5 6 7 8 9 10 11 12 13 14 15 16 17 18 19 20 21 22 23
Song Science #1: How Pros Use 6 Chords to Write Hit Songs
(/) Slide Up  (\) Slide Down  (h) Hammer On  (p) Pull Off  (b) Bend (r) Release (v) Vibrato

Stave 1:

E|------9---9---11-----11-----9------9------11-----11--
B|--14--9---9---11-----11-----9------9------11-----11--
G|--11--10--10--11-----11-----10-----10-----11-----11--
D|--13--11--11--13-----13-----11-----11-----13-----13--
A|-----------------------------------------------------
E|-----------------------------------------------------

Stave 2:

E|------9---9---11-----11-----9-------------9--------------
B|--14--9---9---11-----11-----9------11-----9------11--11--
G|--11--10--10--11-----11-----10-----11-----10-----11--11--
D|--13--11--11--13-----13-----11-----11-----11-----11--11--
A|---------------------------------------------------------
E|---------------------------------------------------------

Stave 3:

E|----------9--9-----9------9-----------------9--9--------9---9---
B|--11--11--7--7-----9------9---------11--11--7--7--------9---9---
G|--11--11--8--8-----10-----10--------11--11--8--8--------10--10--
D|--11--11--9--9-----11-----11--------11--11--9--9--------11--11--
A|--9---9-----------------------------9---9-----------------------
E|----------------------------------------------------------------

Stave 4:

E|--2-----1-----4-----------2-----1-----4--------------
B|--2-----2-----4-----3-----2-----2-----4-----4--4--4--
G|--3-----1-----4-----3-----3-----1-----4-----4--4--4--
D|--4-----3-----4-----3-----4-----3-----4-----4--4--4--
A|--4-----------6-----2-----4-----------6-----2--1--2--
E|--2-----------4-----------2-----------4--------------

Stave 5:

E|--6--6--7--7--6-----------------------------------------
B|--7--7--4--4--7-----------------------------------------
G|--6--6--4--4--6--6--6--6--6--------6--6--6--6-----6--6--
D|--------4--4--------------------------------------------
A|--------------------------------------------------------
E|--------------------------------------------------------

Stave 6:

E|--6--6--4-----2-----------------------------
B|--7--7--4-----2-----------------------------
G|--6--6--4-----3--4--3-----------4--3--------
D|--------4-----4-----------------------------
A|--------6--------------6-----6--------6-----
E|--------4-----------------4--------------4--

Stave 7:

E|--2--2--------------------------------------------
B|--2--2--4-----2-----4-----4-----4-----4-----6--6--
G|--3--3--4-----3-----4-----4-----4-----4-----6--6--
D|--4--4--4-----4-----4-----4-----4-----4-----6--6--
A|--4--4--2-----------2-----2-----2-----2-----4--4--
E|--2--2--------------------------------------------

http://www.guitartabcreator.com
Guitar Tab Creator is intended to store guitar tab created through the tool. It currently does not support in-line text editing. Any text you place in here will be lost. If you need to comment on your tab, please use the "Tab Notes" section located below.