Guitar Player G Shuffle #1

Chords

01234567891011121314151617181920212223
E
B
G
D
A
E
B
0 1 2 3 4 5 6 7 8 9 10 11 12 13 14 15 16 17 18 19 20 21 22 23
(/) Slide Up  (\) Slide Down  (h) Hammer On  (p) Pull Off  (b) Bend (r) Release (v) Vibrato

Capo Fret 3


E|--------------------------|-------------------------|--------------------------|--------------------------|--
B|--------------------------|-------------------------|--------------------------|--------------------------|--
G|--------------------------|-------------------------|--------------------------|--------------------------|--
D|--------------------------|-------------------------|--------------------------|--------------------------|--
A|--2--2--4--2--2--2--4--2--|--2--2--4--2--2--0h2-----|--2--2--------2-----4-----|--5-----4--2--2--2--------|--
E|--0--0--0--0--0--0--0--0--|--0--0--0--0--0-------0--|--0--0--3--4--0--0-----0--|-----0--------0--0--3--4--|--



E|------------------------------|------------------------------|--------------------------|------------------------|--
B|------------------------------|------------------------------|--------------------------|------------------------|--
G|------------------------------|------------------------------|--------------------------|------------------------|--
D|------------------------------|------------------------------|--------------0-----------|------------------------|--
A|-----7-----9-----10-----9--7--|--7----------7--7-----7h9--7--|--2-----4-----------4--2--|--2--2--------2-----0/1/|--
E|-----5--5-----5------5--------|--5--5--8/9-----5--5----------|--0--0-----0-----0--------|--0--0--3--4--0--0------|--



E|--------------------------|--------------------------|--------------------------|-----------------------|-----------
B|--------------------------|--------------------------|--------------------------|-----------------------|-----------
G|--------------------------|--------------------------|--------------------------|-----------------------|-----------
D|--4-----6-----7-----6--4--|--2-----4-----5-----4--3--|--------------------------|--------------4--4--4--|-----------
A|--2--2-----2-----2--------|--0--0-----0-----0--------|--2--2--4--4--5--5--4--2--|--2--0/1/2/3--2--2--2--|--2--------
E|--------------------------|--------------------------|--0--0--0--0--0--0--0--0--|--0--------------------|--0--------

							http://www.guitartabcreator.com
genre
Instruments
{"strings":[[[".",".",".",".",".",".",".",".","|",".",".",".",".",".",".",".",".",".","|",".",".",".",".",".",".",".",".","|",".",".",".",".",".",".",".",".","|"],[".",".",".",".",".",".",".",".","|",".",".",".",".",".",".",".",".",".","|",".",".",".",".",".",".",".",".","|",".",".",".",".",".",".",".",".","|"],[".",".",".",".",".",".",".",".","|",".",".",".",".",".",".",".",".",".","|",".",".",".",".",".",".",".",".","|",".",".",".",".",".",".",".",".","|"],[".",".",".",".",".",".",".",".","|",".",".",".",".",".",".",".",".",".","|",".",".",".",".",".",".",".",".","|",".",".",".",".",".",".",".",".","|"],[2,2,4,2,2,2,4,2,"|",2,2,4,2,2,0,"h",2,".","|",2,2,".",".",2,".",4,".","|",5,".",4,2,2,2,".",".","|"],[0,0,0,0,0,0,0,0,"|",0,0,0,0,0,".",".",".",0,"|",0,0,3,4,0,0,".",0,"|",".",0,".",".",0,0,3,4,"|"]],[["_",".",".",".",".",".",".",".",".","|",".",".",".",".",".",".",".",".",".",".",".",".","|",".",".",".",".",".",".",".",".","|",".",".",".",".",".",".",".",".",".",".","|"],["_",".",".",".",".",".",".",".",".","|",".",".",".",".",".",".",".",".",".",".",".",".","|",".",".",".",".",".",".",".",".","|",".",".",".",".",".",".",".",".",".",".","|"],["_",".",".",".",".",".",".",".",".","|",".",".",".",".",".",".",".",".",".",".",".",".","|",".",".",".",".",".",".",".",".","|",".",".",".",".",".",".",".",".",".",".","|"],["_",".",".",".",".",".",".",".",".","|",".",".",".",".",".",".",".",".",".",".",".",".","|",".",".",".",".",0,".",".",".","|",".",".",".",".",".",".",".",".",".",".","|"],["_",7,".",9,".",10,".",9,7,"|",7,".",".",".",".",7,7,".",7,"h",9,7,"|",2,".",4,".",".",".",4,2,"|",2,2,".",".",2,".",0,"/",1,"/","|"],["_",5,5,".",5,".",5,".",".","|",5,5,8,"/",9,".",5,5,".",".",".",".","|",0,0,".",0,".",0,".",".","|",0,0,3,4,0,0,".",".",".",".","|"]],[[".",".",".",".",".",".",".",".","|",".",".",".",".",".",".",".",".","|",".",".",".",".",".",".",".",".","|",".",".",".",".",".",".",".",".",".",".",".","|",".","_","_"],[".",".",".",".",".",".",".",".","|",".",".",".",".",".",".",".",".","|",".",".",".",".",".",".",".",".","|",".",".",".",".",".",".",".",".",".",".",".","|",".","_","_"],[".",".",".",".",".",".",".",".","|",".",".",".",".",".",".",".",".","|",".",".",".",".",".",".",".",".","|",".",".",".",".",".",".",".",".",".",".",".","|",".","_","_"],[4,".",6,".",7,".",6,4,"|",2,".",4,".",5,".",4,3,"|",".",".",".",".",".",".",".",".","|",".",".",".",".",".",".",".",".",4,4,4,"|",".","_","_"],[2,2,".",2,".",2,".",".","|",0,0,".",0,".",0,".",".","|",2,2,4,4,5,5,4,2,"|",2,0,"/",1,"/",2,"/",3,2,2,2,"|",2,"_","_"],[".",".",".",".",".",".",".",".","|",".",".",".",".",".",".",".",".","|",0,0,0,0,0,0,0,0,"|",0,".",".",".",".",".",".",".",".",".",".","|",0,"_","_"]]],"numberofstrings":6,"notes":["E","B","G","D","A","E","B"],"capo":"3","stringnotes":["E4","B3","G3","D3","A2","E2"],"comments":["Stave 1:","Stave 2:","Stave 3:"],"timing":[["W","W","W","W","W","W","W","W","W","W","W","W","W","W","W","W","W","W","W","W","W","W","W","W","W","W","W",null,"W","W","W","W","W","W","W","W"],[null,"W","W","W","W","W","W","W","W",null,"W","W","W","W","W","W","W","W","W",null,"W","W",null,"W","W","W","W","W","W","W","W",null,"W","W","W","W","W","W","W",null,"W"],["W","W","W","W","W","W","W","W","W","W","W","W","W","W","W","W","W",null,"W","W","W","W","W","W","W","W","W","W","W",null,"W",null,"W",null,"W","W","W","W","W","W","W"]],"timingvisible":false,"tabcounter":42,"stave":2,"totalstaves":3,"instrument":"6guitar","selectedtuning":"6_standard","version":"13"}

Member for

3 months 3 weeks
Submitted by markwickham@co… on Sat, 2020-08-08 19:26