Sound will begin in 5 seconds

Rebel Yell

Chords
01234567891011121314151617181920212223
E
B
G
D
A
E
B
0 1 2 3 4 5 6 7 8 9 10 11 12 13 14 15 16 17 18 19 20 21 22 23
(/) Slide Up  (\) Slide Down  (h) Hammer On  (p) Pull Off  (b) Bend (r) Release (v) Vibrato

Intro

E|--------------------------------------------------------------
B|--------------------------------------------------------------
G|--------------------------------------------------------------
D|--------7--9-----------7--9-----------7--9-----------7--9-----
A|-----9--------------9--------------9--------------9-----------
E|--7--------------7--------------7--------------7--------------

Main Heavy riff x2 | 2nd time x4

E|-----------------------------------------------------------------------------------|--
B|-----------------------------------------------------------------------------------|--
G|-----------------------------------------4--4--------------------------------------|--
D|--------------5--5-----------------------2--2--------------------------------------|--
A|--------------5--5--5--5--------------------------------------5--5-----------------|--
E|--2--3--3--3--3--3--------2--2--2--2--2--------0--0--0--0--0--------0--0--0--0--0--|--

2nd time only leads into verse

E|--------------------------
B|--------------------------
G|-----------------7--------
D|-----------------7--7--9--
A|-----------------5--7--9--
E|--0--0--0--0--0-----5--7--

Verse chords x2

E|--------------------------------------------------
B|--12--------7--------7----------------------------
G|--11--------7--------7----------------------------
D|--9---------7--------5----------------------------
A|------------------------------------5v--5v--0--0--
E|---------------------------0--0--0----------------

Chorus x2

E|------------------------------------------------------------------------------------------
B|------------------------------------------------------------------------------8--8--7--7--
G|--4--4--5--11--11-----------4--4--5--11--11-----------7--7-----7--7-----------7--7--7--7--
D|--4--4--3--9---9------------4--4--3--9---9------------7--7-----7--7-----------5--5--5--5--
A|--2--2-------------0--2--0--2--2-------------0--2--0--5--5-----5--5--0--2--0--------------
E|------------------------------------------------------------------------------------------

Chorus Alternative

E|------------------------------------------------------------------------------------------------------------
B|---------------------------------------------------------------------------8--8-----------------------------
G|--4--4--5--11--11-----------4--4--5--11--11-----------7--7-----7--7--------7--7-----------------------------
D|--4--4--3--9---9------------4--4--3--9---9------------7--7-----7--7--------5--5-----------------------------
A|--2--2-------------0--2--0--2--2-------------0--2--0--5--5-----5--5--0--2--------------------5--5-----------
E|---------------------------------------------------------------------------------0--0--0--0--------0--0-----

1st time into verse | 2nd time back into Main Heavy riff x4

E|---------------------------|--------
B|---------------------------|--7--7--
G|---------------------------|--7--7--
D|---------------------------|--5--5--
A|--------------5--0--2v--v--|--------
E|--0--0--0--0---------------|--------

Repeat Intro then Solo kicks in | Solo Riff 1

E|-----------7-----------7-----------7-----------7-----------7--------------
B|--------7-----------7-----------7-----------7-----------7-----------------
G|--9b11--------9b11--------9b11--------9b11--------9b11--------------------
D|--------------------------------------------------------------------------
A|--------------------------------------------------------------------------
E|-----------------------------------------------------------------7b5v--v--

Solo Riff 2

E|------------------------------------------
B|------------------------------------8b10--
G|---------------------------------7--------
D|------------7--9--7-----9--8--7-----------
A|--4h5--7\9--------------------------------
E|------------------------------------------

Solo Riff 3

E|---------------------------------------------------
B|-----------8b10--------------8b10------------------
G|--------7-----------------7--------7--9--7--9v--v--
D|--7--8--------------7--8---------------------------
A|---------------------------------------------------
E|---------------------------------------------------

Ray Gun Effect

E|-----------------------------------------------------------------
B|-----------------------------------------------------------------
G|-----------------------------------------------------------------
D|-----------------------------------------------------------------
A|-----------------------------------------------------------------
E|--0--0--0--0--0--0--0--0--0--0--0--0--0--0--0--0--0--0--0--0--0--

Solo Riff 4

E|-------------------------------------------------------------------------
B|-------------------------------------------------------------------------
G|------------------------------------------------------------------7v-----
D|---------------------------------------7--8--9--7--8--9--7--8--9------9--
A|-----------------------------5v------------------------------------------
E|--5--6--7--5--6--7--5--6--7------7---------------------------------------

Solo Riff 5

E|-------------------------------------------------------------------------------------
B|--10h11h12--10h11h12--10h11h12--12b14r12-----10h12p10--10h12p10--10h12p10--10h12p10--
G|-------------------------------------------------------------------------------------
D|-------------------------------------------------------------------------------------
A|-------------------------------------------------------------------------------------
E|-------------------------------------------------------------------------------------

Solo Riff 6

E|--7---------------------------------------------------------------------
B|--7-------------------------------------------------------17b19v--v--v--
G|-----9b11r7--9b11r7--9b11r7--9b11r7v------------------16----------------
D|--------------------------------------------6\16--16--------------------
A|------------------------------------------------------------------------
E|------------------------------------------------------------------------

Ray gun effect

E|-----------------------------------------------------
B|-----------------------------------------------------
G|-----------------------------------------------------
D|-----------------------------------------------------
A|-----------------------------------------------------
E|--0--0--0--0--0-----0--0--0--0--0-----0--0--0--0--0--

Keyboard outro bridge pickup with delay

E|----------------------------------------------------------------------------14-----------------
B|------------------------------------------------------------------------15------15-------------
G|----------------------------------------------------------------14--16--------------16v--v--v--
D|--------9v--v--v--v--v-------------------12-------------14--16---------------------------------
A|------------------------12v--v--10v----------12--14\17-----------------------------------------
E|-------------------------------------12--------------------------------------------------------

delay and wah

E|--17--14----------------------
B|----------15--17--15----------
G|----------------------14--16--
D|------------------------------
A|------------------------------
E|------------------------------

verse x2

E|------------------------------------------------------------------------------------------------------------
B|---------------------------------------------------------------------------8--8-----------------------------
G|--4--4--5--11--11-----------4--4--5--11--11-----------7--7-----7--7--------7--7-----------------------------
D|--4--4--3--9---9------------4--4--3--9---9------------7--7-----7--7--------5--5-----------------------------
A|--2--2-------------0--2--0--2--2-------------0--2--0--5--5-----5--5--0--2--------------------5--5-----------
E|---------------------------------------------------------------------------------0--0--0--0--------0--0-----

verse outro x2

E|------------------------------------------------------------------------------------------------------------------------------------------------------------
B|--------------------------------------------------------------------7-----7--7--7--7-----------------------------------12--------------------8--8--8--------
G|--4-----4--4--4-----4-----4--4--4-----------7-----7--7--7-----------7-----7--7--7--7-----4-----4--4--------------4-----11--------7-----------7--7--7-----7--
D|--4-----4--4--4-----4-----4--4--4-----------7-----7--7--7-----------5-----5--5--5--5-----4-----4--4--------------4-----9---------7-----------5--5--5-----7--
A|--2-----2--2--2-----2-----2--2--2--0--2--0--5-----5--5--5--0--2--0--------------------0--2-----2--2--2--0--2--0--2---------2--0--5--0--2--0--------------5--
E|------------------------------------------------------------------------------------------------------------------------------------------------------------

To end song

E|--------------------------------------------------------------
B|--------------------------------------------------------------
G|--------------------------------------------------------------
D|--------7--9-----------7--9-----------7--9-----------7--9-----
A|-----9--------------9--------------9--------------9-----------
E|--7--------------7--------------7--------------7--------------

Stave 21:

E|--
B|--
G|--
D|--
A|--
E|--

Stave 22:

E|--
B|--
G|--
D|--
A|--
E|--

Stave 23:

E|--
B|--
G|--
D|--
A|--
E|--

Stave 24:

E|--
B|--
G|--
D|--
A|--
E|--

http://www.guitartabcreator.com
Guitar Tab Creator is intended to store guitar tab created through the tool. It currently does not support in-line text editing. Any text you place in here will be lost. If you need to comment on your tab, please use the "Tab Notes" section located below.