Sound will begin in 5 seconds

Rebel Yell

Chords
01234567891011121314151617181920212223
E
B
G
D
A
E
B
0 1 2 3 4 5 6 7 8 9 10 11 12 13 14 15 16 17 18 19 20 21 22 23
(/) Slide Up  (\) Slide Down  (h) Hammer On  (p) Pull Off  (b) Bend (r) Release (v) Vibrato

Intro

E|-----------------------------------------------------------
B|-----------------------------------------------------------
G|-----------------------------------------------------------
D|--------7--9-----------7--9-----------7--9-----------7--9--
A|-----9--------------9--------------9--------------9--------
E|--7--------------7--------------7--------------7-----------

Intro Heavy guitar riff

E|----------------------------|-------------------------------------------------------------------
B|----------------------------|-------------------------------------------------------------------
G|----------------------------|-----------------4--4-----------------4--4-------------------------
D|----------------------------|-----------------2--2-----------------2--2-------------------------
A|--------------------5v--5v--|-----------------------------------------------------------5v--5v--
E|--3--3--3--3--3--3----------|--2--2--2--2--2--------0--0--0--0--0--------0--0--0--0--0----------

leads into verse

E|-----------------------|--------------
B|-----------------------|--------------
G|-----------------2--4--|-----7-----4--
D|-----------------2--2--|-----7--7--4--
A|-----------------------|-----5--7--2--
E|--0--0--0--0--0--------|--------5-----

Verse chords

E|--------------------------------------------------
B|--12--------7--------7----------------------------
G|--11--------7--------7----------------------------
D|--9---------7--------5----------------------------
A|------------------------------------5v--5v--0--0--
E|---------------------------0--0--0----------------

Chorus

E|------------------------------------------------------------------------------------------
B|------------------------------------------------------------------------------8--8--7--7--
G|--4--4--5--11--11-----------4--4--5--11--11-----------7--7-----7--7-----------7--7--7--7--
D|--4--4--3--9---9------------4--4--3--9---9------------7--7-----7--7-----------5--5--5--5--
A|--2--2-------------0--2--0--2--2-------------0--2--0--5--5-----5--5--0--2--0--------------
E|------------------------------------------------------------------------------------------

Chorus Alternative

E|---------------------------------------------------------------------------------------------------------
B|---------------------------------------------------------------------------8--8--------------------------
G|--4--4--5--11--11-----------4--4--5--11--11-----------7--7-----7--7--------7--7--------------------------
D|--4--4--3--9---9------------4--4--3--9---9------------7--7-----7--7--------5--5--------------------------
A|--2--2-------------0--2--0--2--2-------------0--2--0--5--5-----5--5--0--2--------------------5--5--------
E|---------------------------------------------------------------------------------0--0--0--0--------0--0--

chorus end

E|---------------------------
B|---------------------------
G|---------------------------
D|---------------------------
A|--------------5--0--2v--v--
E|--0--0--0--0---------------

Solo Riff 1

E|-----------7-----------7-----------7-----------7-----------7--------------
B|--------7-----------7-----------7-----------7-----------7-----------------
G|--9b11--------9b11--------9b11--------9b11--------9b11--------------------
D|--------------------------------------------------------------------------
A|--------------------------------------------------------------------------
E|-----------------------------------------------------------------7b5v--v--

Solo Riff 2

E|------------------------------------------
B|------------------------------------8b10--
G|---------------------------------7--------
D|------------7--9--7-----9--8--7-----------
A|--4h5--7\9--------------------------------
E|------------------------------------------

Solo Riff 3

E|---------------------------------------------------
B|-----------8b10--------------8b10------------------
G|--------7-----------------7--------7--9--7--9v--v--
D|--7--8--------------7--8---------------------------
A|---------------------------------------------------
E|---------------------------------------------------

Ray Gun Effect

E|-----------------------------------------------------------------
B|-----------------------------------------------------------------
G|-----------------------------------------------------------------
D|-----------------------------------------------------------------
A|-----------------------------------------------------------------
E|--0--0--0--0--0--0--0--0--0--0--0--0--0--0--0--0--0--0--0--0--0--

Solo Riff 4

E|-------------------------------------------------------------------------
B|-------------------------------------------------------------------------
G|------------------------------------------------------------------7v-----
D|---------------------------------------7--8--9--7--8--9--7--8--9------9--
A|-----------------------------5v------------------------------------------
E|--5--6--7--5--6--7--5--6--7------7---------------------------------------

Solo Riff 5

E|-------------------------------------------------------------------------------------
B|--10h11h12--10h11h12--10h11h12--12b14r12-----10h12p10--10h12p10--10h12p10--10h12p10--
G|-------------------------------------------------------------------------------------
D|-------------------------------------------------------------------------------------
A|-------------------------------------------------------------------------------------
E|-------------------------------------------------------------------------------------

Solo Riff 6

E|--7---------------------------------------------------------------------
B|--7-------------------------------------------------------17b19v--v--v--
G|-----9b11r7--9b11r7--9b11r7--9b11r7v------------------16----------------
D|--------------------------------------------6\16--16--------------------
A|------------------------------------------------------------------------
E|------------------------------------------------------------------------

Ray gun effect

E|-----------------------------------------------------
B|-----------------------------------------------------
G|-----------------------------------------------------
D|-----------------------------------------------------
A|-----------------------------------------------------
E|--0--0--0--0--0-----0--0--0--0--0-----0--0--0--0--0--

Stave 16:

E|--17--14-------------------------14------17------14------
B|----------15--17--15-----------------17--------------17--
G|----------------------14--16-----------------16----------
D|---------------------------------------------------------
A|---------------------------------------------------------
E|---------------------------------------------------------

http://www.guitartabcreator.com
Guitar Tab Creator is intended to store guitar tab created through the tool. It currently does not support in-line text editing. Any text you place in here will be lost. If you need to comment on your tab, please use the "Tab Notes" section located below.