Sound will begin in 5 seconds

Are you gonna be my girl? Postmodern jukebox

01234567891011121314151617181920212223
E
B
G
D
A
E
B
0 1 2 3 4 5 6 7 8 9 10 11 12 13 14 15 16 17 18 19 20 21 22 23
Song Science #1: How Pros Use 6 Chords to Write Hit Songs
(/) Slide Up  (\) Slide Down  (h) Hammer On  (p) Pull Off  (b) Bend (r) Release (v) Vibrato

Stave 1:

E|--------------------------------------------------------------------------------------
B|--------------------------------------------------------------------------------------
G|--------------------------------------------------------------------------------------
D|-----------4-----------------4--------------------------------------------------------
A|-----4--7-----7--4-----4--7-----7--4--------2--2--4--4--5--5--------2--3--4--5--7-----
E|--5-----------------5-----------------5--5--------------------5--5-----------------5--

Stave 2:

E|--------------------------
B|--------------------------
G|--------------------------
D|--------------------------
A|--5--5--5--5--5--5--5--3--
E|--------------------------

Stave 3:

E|--------------
B|--------------
G|--------------
D|--------------
A|--6--6--3--3--
E|--------------

Stave 4:

E|--------------------------------------------------------------------------------------------------
B|--------------------------------------------------------------------------------------------------
G|-----------------------------------2--5--2-----------------4--7--4--------------------------------
D|-----------4--7--4-----------2--5-----------5--2-----4--7-----------7--4-----------4--7--4--------
A|-----4--7-----------7--4--3-----------------------5--------------------------4--7-----------7--4--
E|--5-----------------------------------------------------------------------5-----------------------

Stave 5:

E|--------------------
B|--------------------
G|--------------------
D|--------------------
A|--7--7--7--7--7-----
E|-----------------3--

Stave 6:

E|--------------------------------------------------
B|--------------------------------------------------
G|--------------------------------------------------
D|-----------4--7--4-----------------4--7--4--------
A|-----4--7-----------7--4-----4--7-----------7--4--
E|--5-----------------------5-----------------------

Stave 7:

E|--------------------------------------------------------------------------------------------------
B|--------------------------------------------------------------------------------------------------
G|-----------------------------------------------------------4--7--4--------------------------------
D|-----------4--7--4-----------------4--7--4-----------4--7-----------7--4-----------4--7--4--------
A|-----4--7-----------7--4-----4--7-----------7--4--5--------------------------4--7-----------7--4--
E|--5-----------------------5-----------------------------------------------5-----------------------

Stave 8:

E|--------------------------------------------------------------------------------------------------
B|--------------------------------------------------------------------------------------------------
G|-----------6--9--6-----------------------------------------4--7--4--------------------------------
D|-----6--9-----------9--6-----------------6--9--6-----4--7-----------7--4-----------4--7--4--------
A|--7--------------------------4--7--4--7-----------5--------------------------4--7-----------7--4--
E|--------------------------5-----------------------------------------------5-----------------------

Stave 9:

E|--------------------------------------------------------------------------------------------------
B|--------------------------------------------------------------------------------------------------
G|-----------4--7--4--------------------------------------------------------------------------------
D|-----4--7-----------7--4-----------4--7--4-----------4--7--4-----6--9--6-----------4--7--4--------
A|--5--------------------------4--7-----------7--4--5-----------7--------------4--7-----------7--4--
E|--------------------------5-----------------------------------------------5-----------------------

Stave 10:

E|--------------------------------------------------------------
B|--------------------------------------------------------------
G|--------------------------------------------------------------
D|-----------------------------------------7--4-----4-----------
A|--------------2--3--3--3--3--4--5--7-----------7-----7--4-----
E|--5--5--5--5--------------------------5--------------------5--

Stave 11:

E|-----------------------
B|-----------------------
G|-----------------------
D|-----------------------
A|-----2--4--5-----7-----
E|--5-----------5-----5--

http://www.guitartabcreator.com
Guitar Tab Creator is intended to store guitar tab created through the tool. It currently does not support in-line text editing. Any text you place in here will be lost. If you need to comment on your tab, please use the "Tab Notes" section located below.