Sound will begin in 5 seconds

Sweep Picking Andy

01234567891011121314151617181920212223
E
B
G
D
A
E
B
0 1 2 3 4 5 6 7 8 9 10 11 12 13 14 15 16 17 18 19 20 21 22 23
Song Science #1: How Pros Use 6 Chords to Write Hit Songs
(/) Slide Up  (\) Slide Down  (h) Hammer On  (p) Pull Off  (b) Bend (r) Release (v) Vibrato

Stave 1:

E|--14--10------10------------------------------------------------------------------------------
B|----------12------12------12------------------------------------------------------------------
G|----------------------11------11\7--11--7-----7-----------------------------------------------
D|-------------------------------------------9-----9-----9--------------------------------------
A|----------------------------------------------------9-----9\5--9p5-----5------------7--9--10--
E|--------------------------------------------------------------------7-----7--9--10------------

Stave 2:

E|------------------10--14--12p9-----------------------------5--9--
B|--------------12----------------10----------------------7--------
G|----------11------------------------9----------------6-----------
D|------12-------------------------------11---------7--------------
A|--14---------------------------------------12--9-----------------
E|-----------------------------------------------------------------

Stave 3:

E|---------------7--10--10------------------14--17------------------15--19--
B|------------8-------------------------15----------------------17----------
G|---------7------------------------14----------------------16--------------
D|------9-----------------------16----------------------17------------------
A|--10----------------------17----------------------19----------------------
E|--------------------------------------------------------------------------

Stave 4:

E|------------------12--15--
B|--------------13----------
G|----------12--------------
D|------14------------------
A|--15----------------------
E|--------------------------

http://www.guitartabcreator.com
Guitar Tab Creator is intended to store guitar tab created through the tool. It currently does not support in-line text editing. Any text you place in here will be lost. If you need to comment on your tab, please use the "Tab Notes" section located below.