Sound will begin in 5 seconds

Sub Pielea Mea - Carla's Dreams

Chords
01234567891011121314151617181920212223
E
B
G
D
A
E
B
0 1 2 3 4 5 6 7 8 9 10 11 12 13 14 15 16 17 18 19 20 21 22 23
Song Science #1: How Pros Use 6 Chords to Write Hit Songs
(/) Slide Up  (\) Slide Down  (h) Hammer On  (p) Pull Off  (b) Bend (r) Release (v) Vibrato

Stave 1:

E|-----------------------------------7--8--10--12--|--------------12------------------
B|-------------------------7--8--10----------------|-----------0---------------0--12--
G|--------8h9p8--4h5p4--2--------------------------|--------5--5------------5--5------
D|--6--7-------------------------------------------|-----7---------------7------------
A|-------------------------------------------------|--0--------0------0--------0------
E|-------------------------------------------------|----------------------------------

Stave 2:

E|--------------12--10--10--10--8--7h8p7--5--5h7--|--|-------------------------------------------
B|-----------0--12--------------------------------|--|-----------1p0-----------------1h3p1p0-----
G|--------5--5--12--------------------------------|--|-----2--2-------2--2-----2--2-----------2--
D|-----7--------------------0---------------------|--|-------------------------------------------
A|--0--------0------------------------------------|--|--0--------0----------0--------0-----------
E|------------------------------------------------|--|-------------------------------------------

Stave 3:

E|------------------------------------|--|----------------------------------------------------
B|-----------------0-----0h1p0--------|--|-----3h5-----------0--------------------------0-----
G|-----2--0--2--2-----1---------2-----|--|--2-------------5--5--------2--0--2--2--0--2-----1--
D|------------------------------------|--|-------------7-----------3--------------------------
A|--------------------2------------0--|--|----------0--------0-----------------------------2--
E|--1--------1------------------------|--|----------------------1-----------1--------1--------

Stave 4:

E|-----------------------------------------------------------------------------------------
B|---------------------3/5--5--5--5--3--3--3--1--1--1--0--0--3--3\1--------3/5\3--3--3--1--
G|--0h2--2-----0h2--2----------------------------------------------------------------------
D|-------2--2-------2---------------------------------------------------2------------------
A|-------0----------0------------------------------------------------0---------------------
E|-----------------------------------------------------------------------------------------

Stave 5:

E|----------------------------------------------------------------------------------
B|-----3h5--3h5p3--3--3--1--3h5p3--1--1--1p0--0-------------------------------------
G|--------------------------------------------5--5------------------5---------------
D|--------------------------------------------7-----7/9--9--9--9p7-----7/9--9--9\7--
A|--0-----------------------------------------0-------------------------------------
E|--------------------------------------------0--0------------------0---------------

Stave 6:

E|------------------------------------------------------------------|--|--
B|--------------------------------3--3/5--5--5\3--3--3--1--------0--|--|--
G|-----5--5--5/7--5\4--2--2/4---------------------------------2-----|--|--
D|------------------------------------------------------------------|--|--
A|--0--------------------------0---------------------------0--------|--|--
E|------------------------------------------------------------------|--|--

Stave 7:

E|--------------12--10--10--10--8--7h8p7--5--5h7--------------12--10--10--10--8--7h8p7--5--5h7--4--5--
B|-----------5--12-----------------------------------------0--12--------------------------------------
G|--------5--5--12--------------------------------------5--5--12--------------------------------------
D|-----7--------------------0------------------------7------------------------------------------------
A|--0--------0------------------------------------0--------0---------------------------------------0--
E|----------------------------------------------------------------------------------------------------

http://www.guitartabcreator.com
Guitar Tab Creator is intended to store guitar tab created through the tool. It currently does not support in-line text editing. Any text you place in here will be lost. If you need to comment on your tab, please use the "Tab Notes" section located below.