t hate this pain

Chords

01234567891011121314151617181920212223
E
B
G
D
A
E
B
0 1 2 3 4 5 6 7 8 9 10 11 12 13 14 15 16 17 18 19 20 21 22 23
(/) Slide Up  (\) Slide Down  (h) Hammer On  (p) Pull Off  (b) Bend (r) Release (v) Vibrato

Stave 1:

E|--------|--------------
B|--------|-----------4--
G|--------|--3--5--3-----
D|--------|--------------
A|--3-----|--------------
E|-----1--|--------------

Stave 2:

E|--------------|--------|----|----------
B|--------4--5--|--------|----|----------
G|-----5--5--5--|--------|--5b|--3/5--8--
D|--5-----------|--------|----|----------
A|--------------|--3-----|----|----------
E|--------------|-----1--|----|----------

							http://www.guitartabcreator.com
Instruments
{"strings":[[[".",".","|",".",".",".","."],[".",".","|",".",".",".",4],[".",".","|",3,5,3,"."],[".",".","|",".",".",".","."],[3,".","|",".",".",".","."],[".",1,"|",".",".",".","."]],[[".",".",".",".","|",".",".","|",".",".","|",".",".",".","."],[".",".",4,5,"|",".",".","|",".",".","|",".",".",".","."],[".",5,5,5,"|",".",".","|",5,"b","|",3,"/",5,8],[5,".",".",".","|",".",".","|",".",".","|",".",".",".","."],[".",".",".",".","|",3,".","|",".",".","|",".",".",".","."],[".",".",".",".","|",".",1,"|",".",".","|",".",".",".","."]]],"numberofstrings":6,"notes":["E","B","G","D","A","E","B"],"capo":0,"stringnotes":["E4","B3","G3","D3","A2","E2"],"comments":["Stave 1:","Stave 2:"],"timing":[["W","W",null,"W","W","W","W"],["W","W","W","W",null,"W","W",null,"W",null,null,"W",null,"W","W"]],"timingvisible":false,"tabcounter":15,"stave":1,"totalstaves":2,"instrument":"6guitar","selectedtuning":"6_standard","version":"13"}

Member for

5 years
Submitted by marine on Wed, 2020-09-16 14:45