Sound will begin in 5 seconds

saint of the street

Chords
01234567891011121314151617181920212223
E
B
G
D
A
E
B
0 1 2 3 4 5 6 7 8 9 10 11 12 13 14 15 16 17 18 19 20 21 22 23
Song Science #1: How Pros Use 6 Chords to Write Hit Songs
(/) Slide Up  (\) Slide Down  (h) Hammer On  (p) Pull Off  (b) Bend (r) Release (v) Vibrato

Capo Fret 2

Stave 1:

Eb|--7--9--7--------------------|--2--------2--------------0--------2--0--------0--|--
Bb|--7--------5h7r0--3--5r0--0--|-----0--------0--------0-----3-----------3--------|--
Gb|--7--------------------------|--------2--------2--0-----------0-----------0-----|--
Db|--0--------------------------|--------------------------------------------------|--
Ab|-----------------------------|--------------------------------------------------|--
Eb|-----------------------------|--------------------------------------------------|--

Stave 2:

Eb|--5--7--------5--7--9--12--
Bb|--2--5--4--3--2--5--7------
Gb|--2--5--6--5--2--5--7------
Db|--2--5--6--5--2------------
Ab|--0--0--0--0--0------------
Eb|---------------------------

http://www.guitartabcreator.com
Guitar Tab Creator is intended to store guitar tab created through the tool. It currently does not support in-line text editing. Any text you place in here will be lost. If you need to comment on your tab, please use the "Tab Notes" section located below.