Sound will begin in 5 seconds

Mayer Licks

Chords
01234567891011121314151617181920212223
E
B
G
D
A
E
B
0 1 2 3 4 5 6 7 8 9 10 11 12 13 14 15 16 17 18 19 20 21 22 23
Song Science #1: How Pros Use 6 Chords to Write Hit Songs
(/) Slide Up  (\) Slide Down  (h) Hammer On  (p) Pull Off  (b) Bend (r) Release (v) Vibrato

Stave 1:

E|-----------------10------10--13p10v---------------------------------
B|-------------10------10--------------13p10--------------------------
G|------10h11---------------------------------12b14p12--10v--12-------
D|--12-----------------------------------------------------------12v--
A|--------------------------------------------------------------------
E|--------------------------------------------------------------------

Stave 2:

E|-----------7----------------7-----------------------------------
B|--------7-----10p7--10b12v-----10p7-----------------------------
G|--9b11-------------------------------9/10\9p7-----7v------------
D|-----------------------------------------------9------9p7-------
A|-----------------------------------------------------------9p7--
E|----------------------------------------------------------------

Stave 3:

E|----------------------------------------------------
B|----------------------------------------------------
G|--9--10--11--9--10----------------------------------
D|--9--11------9--11--11p9---------------------9h11v--
A|--------------------------11--9h10p9----------------
E|--------------------------------------12--9---------

Stave 4:

E|---------8v-----------------------
B|--8--10------10--8----------------
G|--------------------8b9-------9---
D|-------------------------10v--10--
A|----------------------------------
E|------------------------------8---

Stave 5:

E|----------5--7b8--7--5h7p5-----5--5v--5-----------------------------------
B|----5--7--------------------7------------8p5-----5---------------------5--
G|----------------------------------------------7-----5v-----------------6--
D|--------------------------------------------------------7p5------------5--
A|-------------------------------------------------------------7p5\4-----7--
E|--------------------------------------------------------------------5--5--

Stave 6:

E|------------------------------------------------12---------------------------
B|--5h7/9--7h9/12--9h12/14--12h14/17--17v--15b17------15p12--------------------
G|-----------------------------------------------------------14b15b14p12v--13--
D|-------------------------------------------------------------------------12--
A|-------------------------------------------------------------------------14--
E|-------------------------------------------------------------------------12--

Stave 7:

E|---------------------------------------10--------------------------------------------10--------------
B|-----------------------------------10------13--10--13--13b15------------------10h12------10----------
G|------------------------10--12b14-----------------------------14b12--10-------10-------------10------
D|----------------10--12---------------------------------------------------12v---------------------12--
A|------8--10/12---------------------------------------------------------------------------------------
E|--10-------------------------------------------------------------------------------------------------

Stave 8:

E|--12-------------------------------------------------------------------------------
B|--12h14--12------12-----12------12---------------------------------------------12--
G|--_---------14--11h13--11------11------------9--9-----------------------------9---
D|--_------------------------14--11h13--13\11--9--9h11--11/12\11--9-------------9---
A|--_----------------------------------------------------------------11\9--7--9/11--
E|--_-------------------------------------------------------------------------------

Stave 9:

E|----------------------------------------------------------------------
B|--13b15--10--13--10h13p10---------------------10----------------------
G|---------------------------12--10--12--12b14------10--12------10b11v--
D|----------------------------------------------------------12----------
A|----------------------------------------------------------------------
E|----------------------------------------------------------------------

Stave 10:

E|-------------10------13b15--13--10------10h13p10-----------------------------------------------------
B|---------10------10-----------------13------------13--10h13--13p10-----------------------------------
G|--12b14-------------------------------------------------------------13\12p10------10v----------------
D|------------------------------------------------------------------------------12-------12p10---------
A|----------------------------------------------------------------------------------------------12p10--
E|-----------------------------------------------------------------------------------------------------

Stave 11:

E|---------------------------------------------------------------
B|--5------------------------------------------------------------
G|-----7p5-----7p5-------5---------------------------------------
D|----------7-------7p5-----7p5-----7p5h7-----5------------------
A|-------------------------------7---------5-----7p5-----5h7-----
E|----------------------------------------------------8-------5--

Stave 12:

E|--|--|-------------------------------------------------------------------------------------
B|--|--|-------------------------------------------------------------------------------------
G|--|--|-----------------------------6------------------------9------------------11----------
D|--|--|--------6-----9--6--------------9--7----------11---------11------------------14--12--
A|--|--|-----7-----7-----------7--9---------------12------12-------------12--14--------------
E|--|--|--5-----------------0-----------------10---------------------10----------------------

Stave 13:

E|--|------------------------------------------------------------------------------
B|--|-------------------------------------------10-----9---------------------------
G|--|--------------7-----------6/7---------------------------11-----9---9----------
D|--|--------7--------9-------------9--------9------9-----9------9--12--11--9------
A|--|-----9-----9-----------9----------9---------------------------------------12--
E|--|--7-----------------7----------------0----------------------------------------

Stave 14:

E|--|--------------------------------------------------------------------------|--|--
B|--|--------------------------------------------------------------------------|--|--
G|--|-----------------------------6--------------------------7-----6-----------|--|--
D|--|--------6-----9--6--------------9--7--------6-----9--7-----7-----7--9--7--|--|--
A|--|-----7-----7-----------7--9--------------7-----7--------------------------|--|--
E|--|--5-----------------0-----------------5-----------------------------------|--|--

Stave 15:

E|--8-----8--------------------------------
B|--8h10-----8-----------------------------
G|--------------8----------------------9---
D|-----------------8h10--8-------------8---
A|--------------------------10\8p5-----10--
E|----------------------------------8--8---

http://www.guitartabcreator.com
Guitar Tab Creator is intended to store guitar tab created through the tool. It currently does not support in-line text editing. Any text you place in here will be lost. If you need to comment on your tab, please use the "Tab Notes" section located below.