Raidou Kuzunoha 1 - Ending

Chords

01234567891011121314151617181920212223
E
B
G
D
A
E
B
0 1 2 3 4 5 6 7 8 9 10 11 12 13 14 15 16 17 18 19 20 21 22 23
(/) Slide Up  (\) Slide Down  (h) Hammer On  (p) Pull Off  (b) Bend (r) Release (v) Vibrato

Stave 1:

E|-------------------------------------------------------------------------------
B|-6/8-7-6-5-3h4p3---------------------------------------------------------------
G|-----------------5-3-2-2/5-5-5-2-----------------------------------------------
D|---------------------------------3-3-0-3-5-3-5---------------------------------
A|-------------------------------------------------------------------------------
E|-------------------------------------------------------------------------------

Stave 2:

E|--------------------------------8-8-8----------8/10-10-10-----------------8-8/10-10-10-10/13-13-13-13-12-11-10-
B|-------------8-10-10/11-11-10-8-------10------------------10-10----7/8-11--------------------------------------
G|-----------------------------------------10-10------------------10---------------------------------------------
D|-8h10r8h10-8---------------------------------------------------------------------------------------------------
A|---------------------------------------------------------------------------------------------------------------
E|---------------------------------------------------------------------------------------------------------------

Stave 3:

E|-13/15-15----14-15-15/17-17-------18-18-17-18-18\17-15-17-17\15-12-12/13-13-
B|----------------------------15----------------------------------------------
G|----------------------------------------------------------------------------
D|----------------------------------------------------------------------------
A|----------------------------------------------------------------------------
E|----------------------------------------------------------------------------

Stave 4:

E|-13-11-10----------------------------------------------------------------------13-15-
B|----------13----11h13p11-10-11/13-13-13\10-10-10-------------------11-13/15-15-------
G|-------------------------------------------------10-10----10-10/12-------------------
D|-------------------------------------------------------12----------------------------
A|-------------------------------------------------------------------------------------
E|-------------------------------------------------------------------------------------

							http://www.guitartabcreator.com
genre
Instruments
{"strings":[[[".",".",".",".",".",".",".",".",".",".",".",".",".",".",".",".",".",".",".",".",".",".",".",".",".",".",".",".",".",".",".",".",".",".",".",".",".",".",".",".",".",".","."],[6,"/",8,7,6,5,3,"h",4,"p",3,".",".",".",".",".",".",".",".",".",".",".",".",".",".",".",".",".",".",".",".",".",".",".",".",".",".",".",".",".",".",".","."],[".",".",".",".",".",".",".",".",".",".",".",5,3,2,2,"/",5,5,5,2,".",".",".",".",".",".",".",".",".",".",".",".",".",".",".",".",".",".",".",".",".",".","."],[".",".",".",".",".",".",".",".",".",".",".",".",".",".",".",".",".",".",".",".",3,3,0,3,5,3,5,".",".",".",".",".",".",".",".",".",".",".",".",".",".",".","."],[".",".",".",".",".",".",".",".",".",".",".",".",".",".",".",".",".",".",".",".",".",".",".",".",".",".",".",".",".",".",".",".",".",".",".",".",".",".",".",".",".",".","."],[".",".",".",".",".",".",".",".",".",".",".",".",".",".",".",".",".",".",".",".",".",".",".",".",".",".",".",".",".",".",".",".",".",".",".",".",".",".",".",".",".",".","."]],[[".",".",".",".",".",".",".",".",".",".",".",".",".",".",".",".",8,8,8,".",".",".",8,"/",10,10,10,".",".",".",".",".",".",".",8,8,"/",10,10,10,10,"/",13,13,13,13,12,11,10],[".",".",".",".",".",".",".",".",8,10,10,"/",11,11,10,8,".",".",".",10,".",".",".",".",".",".",".",10,10,".",7,"/",8,11,".",".",".",".",".",".",".",".",".",".",".",".",".",".","."],[".",".",".",".",".",".",".",".",".",".",".",".",".",".",".",".",".",".",".",".",10,10,".",".",".",".",".",".",".",10,".",".",".",".",".",".",".",".",".",".",".",".",".",".",".",".",".",".","."],[8,"h",10,"r",8,"h",10,8,".",".",".",".",".",".",".",".",".",".",".",".",".",".",".",".",".",".",".",".",".",".",".",".",".",".",".",".",".",".",".",".",".",".",".",".",".",".",".",".","."],[".",".",".",".",".",".",".",".",".",".",".",".",".",".",".",".",".",".",".",".",".",".",".",".",".",".",".",".",".",".",".",".",".",".",".",".",".",".",".",".",".",".",".",".",".",".",".",".","."],[".",".",".",".",".",".",".",".",".",".",".",".",".",".",".",".",".",".",".",".",".",".",".",".",".",".",".",".",".",".",".",".",".",".",".",".",".",".",".",".",".",".",".",".",".",".",".",".","."]],[[13,"/",15,15,"_",14,15,15,"/",17,17,".","_",18,18,17,18,18,"\\",17,15,17,17,"\\",15,12,12,"/",13,13],[".",".",".",".","_",".",".",".",".",".",".",15,"_",".",".",".",".",".",".",".",".",".",".",".",".",".",".",".",".","."],[".",".",".",".","_",".",".",".",".",".",".",".","_",".",".",".",".",".",".",".",".",".",".",".",".",".",".",".",".","."],[".",".",".",".","_",".",".",".",".",".",".",".","_",".",".",".",".",".",".",".",".",".",".",".",".",".",".",".",".","."],[".",".",".",".","_",".",".",".",".",".",".",".","_",".",".",".",".",".",".",".",".",".",".",".",".",".",".",".",".","."],[".",".",".",".","_",".",".",".",".",".",".",".","_",".",".",".",".",".",".",".",".",".",".",".",".",".",".",".",".","."]],[[13,11,10,".","_",".",".",".",".",".",".",".",".",".",".",".",".",".",".",".",".",".",".",".",".",".",".",".",".",".",".",".",13,15],[".",".",".",13,"_",11,"h",13,"p",11,10,11,"/",13,13,13,"\\",10,10,10,".",".",".",".",".",".",".",11,13,"/",15,15,".","."],[".",".",".",".","_",".",".",".",".",".",".",".",".",".",".",".",".",".",".",".",10,10,".",10,10,"/",12,".",".",".",".",".",".","."],[".",".",".",".","_",".",".",".",".",".",".",".",".",".",".",".",".",".",".",".",".",".",12,".",".",".",".",".",".",".",".",".",".","."],[".",".",".",".","_",".",".",".",".",".",".",".",".",".",".",".",".",".",".",".",".",".",".",".",".",".",".",".",".",".",".",".",".","."],[".",".",".",".","_",".",".",".",".",".",".",".",".",".",".",".",".",".",".",".",".",".",".",".",".",".",".",".",".",".",".",".",".","."]]],"numberofstrings":6,"notes":["E","B","G","D","A","E","B"],"capo":0,"stringnotes":["E4","B3","G3","D3","A2","E2"],"comments":["Stave 1:","Stave 2:","Stave 3:","Stave 4:","Stave 5:"],"timing":[[null,null,null,null,null,null,null,null,null,null,null,null,null,null,null,null,null,null,null,null,null,null,null,null,null,null,null,null,null,null,null,null,null,null,null,null,null,null,null,null,null,null,null,null,null,null],[null,null,null,null,null,null,null,null,null,null,null,null,null,null,null,null,null,null,null,null,null,null,null,null,null,null,null,null,null,null,null,null,null,null,null,null,null,null,null,null,null,null,null,"W","W","W","W","W","W","W"],["W","W","W","W",null,"W","W","W",null,"W","W","W",null,"W","W","W","W","W",null,"W","W","W","W",null,"W","W","W",null,"W","W"],["W","W","W","W","W","W",null,"W",null,"W","W","W",null,"W","W","W",null,"W","W","W","W","W","W","W","W",null,"W","W","W",null,"W","W","W","W"],[]],"timingvisible":false,"tabcounter":0,"totalstaves":4,"instrument":"6guitar","selectedtuning":"6_standard","version":"13"}

Member for

1 month 1 week
Submitted by Marido de Aluguel on Fri, 2020-10-23 19:32