I Exit Intro Add Guitar Line

Chords

01234567891011121314151617181920212223
E
B
G
D
A
E
B
0 1 2 3 4 5 6 7 8 9 10 11 12 13 14 15 16 17 18 19 20 21 22 23
(/) Slide Up  (\) Slide Down  (h) Hammer On  (p) Pull Off  (b) Bend (r) Release (v) Vibrato

Stave 1:

E|-----------------------------------------------------------------------------------------------------------------------------------------------------
B|-----4-----4-----4-----4-----6-----6-----6-----6-----4-----4-----4-----4-----4-----4-----4-----4--------------------------------6-----6-----6-----6--
G|--5-----5-----5-----5-----6-----6-----6-----6-----5-----5-----5-----5-----5-----5-----5-----5--------5-----5-----5-----5--6--------6-----6-----6-----
D|--------------------------------------------------------------------------------------------------6-----6-----6-----6--------------------------------
A|-----------------------------------------------------------------------------------------------------------------------------------------------------
E|-----------------------------------------------------------------------------------------------------------------------------------------------------

Stave 2:

E|--------------------------------------------------------------------------------------------------------------------------
B|-----4-----4-----4-----4-----4-----4-----4-----4-----4-----4-----4-----4-----6-----6-----6-----6-----8-----8-----8-----8--
G|--5-----5-----5-----5-----5-----5-----5-----5-----5-----5-----5-----5-----6-----6-----6-----6-----5-----5-----5-----5-----
D|--------------------------------------------------------------------------------------------------------------------------
A|--------------------------------------------------------------------------------------------------------------------------
E|--------------------------------------------------------------------------------------------------------------------------

Stave 3:

E|--------------------------------------------------------------------------------------------------
B|-----4-----4-----4-----4-----6-----6-----6-----6-----4-----4-----0-----0-----0-----0-----0-----0--
G|--5-----5-----5-----5-----6-----6-----6-----6-----5-----5-----5-----5-----5-----5-----5-----5-----
D|--------------------------------------------------------------------------------------------------
A|--------------------------------------------------------------------------------------------------
E|--------------------------------------------------------------------------------------------------

							http://www.guitartabcreator.com
Instruments
{"strings":[[[".",".",".",".",".",".",".",".",".",".",".",".",".",".",".",".",".",".",".",".",".",".",".",".",".",".",".",".",".",".",".",".",".",".",".",".",".",".",".",".",".",".",".",".",".",".",".",".","."],[".",4,".",4,".",4,".",4,".",6,".",6,".",6,".",6,".",4,".",4,".",4,".",4,".",4,".",4,".",4,".",4,".",".",".",".",".",".",".",".",".",".",6,".",6,".",6,".",6],[5,".",5,".",5,".",5,".",6,".",6,".",6,".",6,".",5,".",5,".",5,".",5,".",5,".",5,".",5,".",5,".",".",5,".",5,".",5,".",5,6,".",".",6,".",6,".",6,"."],[".",".",".",".",".",".",".",".",".",".",".",".",".",".",".",".",".",".",".",".",".",".",".",".",".",".",".",".",".",".",".",".",6,".",6,".",6,".",6,".",".",".",".",".",".",".",".",".","."],[".",".",".",".",".",".",".",".",".",".",".",".",".",".",".",".",".",".",".",".",".",".",".",".",".",".",".",".",".",".",".",".",".",".",".",".",".",".",".",".",".",".",".",".",".",".",".",".","."],[".",".",".",".",".",".",".",".",".",".",".",".",".",".",".",".",".",".",".",".",".",".",".",".",".",".",".",".",".",".",".",".",".",".",".",".",".",".",".",".",".",".",".",".",".",".",".",".","."]],[[".",".",".",".",".",".",".",".",".",".",".",".",".",".",".",".",".",".",".",".",".",".",".",".",".",".",".",".",".",".",".",".",".",".",".",".",".",".",".","."],[".",4,".",4,".",4,".",4,".",4,".",4,".",4,".",4,".",4,".",4,".",4,".",4,".",6,".",6,".",6,".",6,".",8,".",8,".",8,".",8],[5,".",5,".",5,".",5,".",5,".",5,".",5,".",5,".",5,".",5,".",5,".",5,".",6,".",6,".",6,".",6,".",5,".",5,".",5,".",5,"."],[".",".",".",".",".",".",".",".",".",".",".",".",".",".",".",".",".",".",".",".",".",".",".",".",".",".",".",".",".",".",".",".",".",".",".",".",".",".",".","."],[".",".",".",".",".",".",".",".",".",".",".",".",".",".",".",".",".",".",".",".",".",".",".",".",".",".",".",".",".",".",".",".",".",".",".",".",".",".",".","."],[".",".",".",".",".",".",".",".",".",".",".",".",".",".",".",".",".",".",".",".",".",".",".",".",".",".",".",".",".",".",".",".",".",".",".",".",".",".",".","."]],[[".",".",".",".",".",".",".",".",".",".",".",".",".",".",".",".",".",".",".",".",".",".",".",".",".",".",".",".",".",".",".","."],[".",4,".",4,".",4,".",4,".",6,".",6,".",6,".",6,".",4,".",4,".",0,".",0,".",0,".",0,".",0,".",0],[5,".",5,".",5,".",5,".",6,".",6,".",6,".",6,".",5,".",5,".",5,".",5,".",5,".",5,".",5,".",5,"."],[".",".",".",".",".",".",".",".",".",".",".",".",".",".",".",".",".",".",".",".",".",".",".",".",".",".",".",".",".",".",".","."],[".",".",".",".",".",".",".",".",".",".",".",".",".",".",".",".",".",".",".",".",".",".",".",".",".",".",".",".",".",".",".","."],[".",".",".",".",".",".",".",".",".",".",".",".",".",".",".",".",".",".",".",".",".",".",".",".",".",".",".",".",".",".",".","."]]],"numberofstrings":6,"notes":["E","B","G","D","A","E","B"],"capo":0,"stringnotes":["E4","B3","G3","D3","A2","E2"],"comments":["Stave 1:","Stave 2:","Stave 3:"],"timing":[[null,null,null,null,null,null,null,null,null,null,null,null,null,null,null,null,null,null,null,null,null,null,null,null,null,null,null,null,null,null,null,null,null,null,null,null,null,null,null,null,null,null,null,null,null,null,null,null,null,null,null],[null,null,null,null,null,null,null,null,null,null,null,null,null,null,null,null,null,null,null,null,null,null,null,null,null,null,null,null,null,null,null,null,null,null,null,null,null,null,null,null],["W","W","W","W","W","W","W","W","W","W","W","W","W","W","W","W","W","W","W","W","W","W","W","W","W","W","W","W","W","W","W","W"]],"timingvisible":false,"tabcounter":32,"stave":2,"totalstaves":3,"instrument":"6guitar","selectedtuning":"6_standard","version":"13"}

Member for

2 months 3 weeks
Submitted by marcusgraham325 on Tue, 2020-10-06 10:52