roata

01234567891011121314151617181920212223
E
B
G
D
A
E
B
0 1 2 3 4 5 6 7 8 9 10 11 12 13 14 15 16 17 18 19 20 21 22 23
(/) Slide Up  (\) Slide Down  (h) Hammer On  (p) Pull Off  (b) Bend (r) Release (v) Vibrato

Stave 1:

E|-----------------------------------------------------------------------------------
B|-----------------------------------------------------------------------------------
G|-----------------------------------------------------------------------------------
D|---------9---------9--9--9--9--9-------------------7---------7--7--7--9--9---------
A|--7--10--------10-----------------10--9-----7--10--------10-----------------10--9--
E|-----------------------------------------------------------------------------------

Stave 2:

E|-------------------------------------------------
B|-------------------------------------------------
G|----------------------------------------------7--
D|----------------------7------7--9--10--9--10-----
A|--7--7--7--10--9--10-----10----------------------
E|-------------------------------------------------

							http://www.guitartabcreator.com
Chords

Instruments
{"strings":[[[".",".",".","_",".",".",".",".",".",".",".",".","_",".",".",".","_",".",".",".",".",".",".",".","."],[".",".",".","_",".",".",".",".",".",".",".",".","_",".",".",".","_",".",".",".",".",".",".",".","."],[".",".",".","_",".",".",".",".",".",".",".",".","_",".",".",".","_",".",".",".",".",".",".",".","."],[".",".",9,"_",".",9,9,9,9,9,".",".","_",".",".",7,"_",".",7,7,7,9,9,".","."],[7,10,".","_",10,".",".",".",".",".",10,9,"_",7,10,".","_",10,".",".",".",".",".",10,9],[".",".",".","_",".",".",".",".",".",".",".",".","_",".",".",".","_",".",".",".",".",".",".",".","."]],[[".",".",".",".",".",".",".",".",".",".",".",".",".","."],[".",".",".",".",".",".",".",".",".",".",".",".",".","."],[".",".",".",".",".",".",".",".",".",".",".",".",".",7],[".",".",".",".",".",".",7,".",7,9,10,9,10,"."],[7,7,7,10,9,10,".",10,".",".",".",".",".","."],[".",".",".",".",".",".",".",".",".",".",".",".",".","."]]],"numberofstrings":6,"notes":["E","B","G","D","A","E","B"],"capo":0,"stringnotes":["E4","B3","G3","D3","A2","E2"],"comments":["Stave 1:","Stave 2:"],"timing":[["W","W","W","W","W","W","W","W","W","W","W","W","W","W","W","W","W","W","W","W","W","W","W","W","W"],["W","W","W","W","W","W","W","W","W","W","W","W","W","W"]],"timingvisible":false,"tabcounter":14,"stave":1,"totalstaves":2,"instrument":"6guitar","selectedtuning":"6_standard","version":"13"}

Member for

1 month 2 weeks
Submitted by marcuionut on Sun, 2021-12-05 08:54