Sound will begin in 5 seconds

The Force - bass

01234567891011121314151617181920212223
E
B
G
D
A
E
B
0 1 2 3 4 5 6 7 8 9 10 11 12 13 14 15 16 17 18 19 20 21 22 23
(/) Slide Up  (\) Slide Down  (h) Hammer On  (p) Pull Off  (b) Bend (r) Release (v) Vibrato

Stave 1:

G|------------------------------------------------------
D|----------------13h15--15/16--15--13------------------
A|------------13------------------------13--------------
E|--11h13/14--------------------------------14--13--11--

Stave 2:

G|------------------------------
D|----------------13h15--15/16--
A|------------13----------------
E|--11h13/14--------------------

Stave 3:

G|------------------------------------------------------
D|----------------13h15--15/16--15--13------------------
A|------------13------------------------13--------------
E|--11h13/14--------------------------------14--13--11--

Stave 4:

G|------------------------------
D|----------------13h15--15/16--
A|------------13----------------
E|--11h13/14--------------------

Stave 5:

G|------------------------------------------------------
D|----------------12h14--14/15--14--12------------------
A|------------12------------------------12--------------
E|--10h12/13--------------------------------13--12--10--

Stave 6:

G|------------------------------
D|----------------12h14--14/15--
A|------------12----------------
E|--10h12/13--------------------

Stave 7:

G|------------------------------------------------------
D|----------------12h14--14/15--14--12------------------
A|------------12------------------------12--------------
E|--10h12/13--------------------------------13--12--10--

Stave 8:

G|------------------------------
D|----------------12h14--14/15--
A|------------12----------------
E|--10h12/13--------------------

http://www.guitartabcreator.com
Guitar Tab Creator is intended to store guitar tab created through the tool. It currently does not support in-line text editing. Any text you place in here will be lost. If you need to comment on your tab, please use the "Tab Notes" section located below.