Sound will begin in 5 seconds

Solo Thing

01234567891011121314151617181920212223
E
B
G
D
A
E
B
0 1 2 3 4 5 6 7 8 9 10 11 12 13 14 15 16 17 18 19 20 21 22 23
Song Science #1: How Pros Use 6 Chords to Write Hit Songs
(/) Slide Up  (\) Slide Down  (h) Hammer On  (p) Pull Off  (b) Bend (r) Release (v) Vibrato

Stave 1:

E|--19--17------17------------------------------------------------------------------------------
B|----------20------20--19--20--19--17--19--17--16--17--16------16------------------------------
G|----------------------------------------------------------17------17--16--17--16--14--16--14--
D|----------------------------------------------------------------------------------------------
A|----------------------------------------------------------------------------------------------
E|----------------------------------------------------------------------------------------------

Stave 2:

E|--------------------------------------------------------------------------------------------------
B|--------------------------------------------------------------------------------------------------
G|------14------------------------------------------------------------------------------------------
D|--17------17--16--17--16--14--16--14--13--14--13------13------------------------------------------
A|--------------------------------------------------15------15--14--15--14--12--14--12--10--12--10--
E|--------------------------------------------------------------------------------------------------

Stave 3:

E|---------------------------------------------------------------------------------------------
B|---------------------------------------------------------------------------------------------
G|---------------------------------------------------------------------------------------------
D|---------------------------------------------------------------------------------------------
A|--9--10--9--7--9--7--6--7--6--3--6--3--2--3--2--0--2--0--------------------------------------
E|---------------------------------------------------------5--7--5--4--5--4--2--4--2--1--2--1--

http://www.guitartabcreator.com
Guitar Tab Creator is intended to store guitar tab created through the tool. It currently does not support in-line text editing. Any text you place in here will be lost. If you need to comment on your tab, please use the "Tab Notes" section located below.