Sound will begin in 5 seconds

New Song not in order

01234567891011121314151617181920212223
E
B
G
D
A
E
B
0 1 2 3 4 5 6 7 8 9 10 11 12 13 14 15 16 17 18 19 20 21 22 23
Song Science #1: How Pros Use 6 Chords to Write Hit Songs
(/) Slide Up  (\) Slide Down  (h) Hammer On  (p) Pull Off  (b) Bend (r) Release (v) Vibrato

Stave 1:

E|----------------------13--17--13----------18----------------------
B|------------------15--------------15----------15------------------
G|--------------14----------------------14----------14--12--14--15--
D|----------15------------------------------------------------------
A|--12--17----------------------------------------------------------
E|------------------------------------------------------------------

Stave 2:

E|-----------------------------------------------------------------------
B|-----6--------------------------6-----------6--------------------------
G|--------9--5--------------5--9-----9--5--------9--5--------------------
D|--------------7--------7-----------------------------7-----------------
A|-----------------------------------------------------------------------
E|--0--------------0--0--------------------0--------------0--8--7--3--2--

Stave 3:

E|---------------------------------------------------
B|---------------------------------------------------
G|---------------------------------------------------
D|---------------------------------------------------
A|--------8-----7-----8-----10-----8-----7--8--7--5--
E|--0--0-----0-----0-----0------0-----0--------------

Stave 4:

E|--------------------------------------------------------------------------------
B|--------------------------------------------------------------------------------
G|--------------------------------------------------------------------------------
D|--------3-----3-----3-----3-----3--------3-----3-----3-----3-----3--3-----------
A|-----7-----7-----7-----7-----7--------7-----7-----7-----7-----7--------7--3-----
E|--0--------------------------------0-----------------------------------------7--

http://www.guitartabcreator.com
Guitar Tab Creator is intended to store guitar tab created through the tool. It currently does not support in-line text editing. Any text you place in here will be lost. If you need to comment on your tab, please use the "Tab Notes" section located below.