Sound will begin in 5 seconds

Hula Radio

Chords
01234567891011121314151617181920212223
E
B
G
D
A
E
B
0 1 2 3 4 5 6 7 8 9 10 11 12 13 14 15 16 17 18 19 20 21 22 23
Song Science #1: How Pros Use 6 Chords to Write Hit Songs
(/) Slide Up  (\) Slide Down  (h) Hammer On  (p) Pull Off  (b) Bend (r) Release (v) Vibrato

Stave 1:

D|-----11-----12--12--12-----9--|--12--12-----9--|--12p9--------|--
B|------------------------------|----------------|--------0-----|--
G|------------------------------|----------------|--------------|--
D|---------0--------------0-----|----------0-----|-----------0--|--
G|--0-------------0-------------|--0-------------|--0-----------|--
D|------------------------------|----------------|--------------|--

Stave 2:

D|--------------|--5--------14--|--12---------12h14p12--|--12-----0--|--
B|-----5-----7--|-----5---------|------12---------------|------------|--
G|--------------|---------------|-----------------------|------------|--
D|--------5-----|---------------|----------0------------|------0-----|--
G|--5-----------|--5-----5------|--0--------------------|--0---------|--
D|--------------|---------------|-----------------------|------------|--

Stave 3:

D|-----11-----12--|-----12-----9--|--12--12-----9--|--
B|----------------|---------------|----------------|--
G|----------------|---------------|----------------|--
D|---------0------|---------0-----|----------0-----|--
G|--0-------------|---------------|--0-------------|--
D|----------------|--0------------|----------------|--

Stave 4:

D|--12--11--10--9--12--11--|--10--9--12--9--14--9--|--
B|-------------------------|-----------------------|--
G|-------------------------|-----------------------|--
D|--------------0----------|-------------0---------|--
G|-------------------------|-----------------------|--
D|--0----------------------|--0--------------------|--

Stave 5:

D|--0-------0--4\5--|-----5-----7--|--5--------0--|--
B|-----0h1----------|--------------|-----0--------|--
G|------------------|--------------|--------------|--
D|----------0-------|--------0-----|--------0-----|--
G|------------------|--0-----------|--0-----------|--
D|--0---------------|--------------|--------------|--

Stave 6:

D|-----0-----0--|-----0--4\5--|-----5-----7--|--7/5--------0--|--
B|--------2-----|--1----------|--------------|-------0--------|--
G|--------------|-------------|--------------|----------------|--
D|--------0-----|--------0----|--------0-----|----------0-----|--
G|--------------|-------------|--0-----------|--0-------------|--
D|--0-----------|--0----------|--------------|----------------|--

http://www.guitartabcreator.com
Guitar Tab Creator is intended to store guitar tab created through the tool. It currently does not support in-line text editing. Any text you place in here will be lost. If you need to comment on your tab, please use the "Tab Notes" section located below.