Sound will begin in 5 seconds

Meltdown-Meltdown

Chords
01234567891011121314151617181920212223
E
B
G
D
A
E
B
0 1 2 3 4 5 6 7 8 9 10 11 12 13 14 15 16 17 18 19 20 21 22 23
Song Science #1: How Pros Use 6 Chords to Write Hit Songs
(/) Slide Up  (\) Slide Down  (h) Hammer On  (p) Pull Off  (b) Bend (r) Release (v) Vibrato

Stave 1:

E|--------------------------------------------------------------------------------------------
B|--------------------------------------------------------------------------------------------
G|--------------------------------------------------------------------------------------------
D|--5--2--------5--2-----5-----8--7-----7-----4--5--5--2--------5--2-----5-----2--4--5--2--7--
A|--5--2--------5--2-----5-----8--7-----7-----4--5--5--2--------5--2-----5-----2--4--5--2--7--
E|--3--0--0--0--3--0--0--3--0--6--5--0--5--0--2--3--3--0--0--0--3--0--0--3--0--0--2--3--0--5--

Stave 2:

E|--------------------------------------------------------------------------------------------
B|--------------------------------------------------------------------------------------------
G|--------------------------------------------------------------------------------------------
D|--5--2--------5--2-----5-----8--7-----7-----4--5--5--2--------5--2-----5-----7--8--9--------
A|--5--2--------5--2-----5-----8--7-----7-----4--5--5--2--------5--2-----5-----7--8--9--------
E|--3--0--0--0--3--0--0--3--0--6--5--0--5--0--2--3--3--0--0--0--3--0--0--3--0--5--6--7--0b10--

Stave 3:

E|-----------------------------------------------------------------------------------------
B|-----------------------------------------------------------------------------------------
G|-----------------------------------------------------------------------------------------
D|--2--------5--------7-----5--------8-----7-----5-----------5--------7-----7--8--9--------
A|--2--------5--------7-----5--------8-----7-----5-----------5--------7-----7--8--9--------
E|--0--0--0--3--0--0--5--0--3--0--0--6--0--5--0--3--0--0--0--3--0--0--5--0--5--6--7--0b10--

Stave 4:

E|--------------------------------------------------------------------------------------------
B|--------------------------------------------------------------------------------------------
G|--------------------------------------------------------------------------------------------
D|--5--2--------5--2-----5-----8--7-----7-----4--5--------------------------------------------
A|--5--2--------5--2-----5-----8--7-----7-----4--5--------------------------------------------
E|--3--0--0--0--3--0--0--3--0--6--5--0--5--0--2--3--3--3--3--3--3--2--3--5--5--5--5--5--5--5--

Stave 5:

E|--
B|--
G|--
D|--
A|--
E|--

Stave 6:

E|--
B|--
G|--
D|--
A|--
E|--

Stave 7:

E|--
B|--
G|--
D|--
A|--
E|--

Stave 8:

E|--
B|--
G|--
D|--
A|--
E|--

Stave 9:

E|--
B|--
G|--
D|--
A|--
E|--

Stave 10:

E|--
B|--
G|--
D|--
A|--
E|--

Stave 11:

E|--
B|--
G|--
D|--
A|--
E|--

Stave 12:

E|--
B|--
G|--
D|--
A|--
E|--

Stave 13:

E|--
B|--
G|--
D|--
A|--
E|--

Stave 14:

E|--
B|--
G|--
D|--
A|--
E|--

Stave 15:

E|--
B|--
G|--
D|--
A|--
E|--

Stave 16:

E|--
B|--
G|--
D|--
A|--
E|--

Stave 17:

E|--
B|--
G|--
D|--
A|--
E|--

Stave 18:

E|--
B|--
G|--
D|--
A|--
E|--

Stave 19:

E|--
B|--
G|--
D|--
A|--
E|--

Stave 20:

E|--
B|--
G|--
D|--
A|--
E|--

Stave 21:

E|--
B|--
G|--
D|--
A|--
E|--

Stave 22:

E|--
B|--
G|--
D|--
A|--
E|--

Stave 23:

E|--
B|--
G|--
D|--
A|--
E|--

Stave 24:

E|--
B|--
G|--
D|--
A|--
E|--

Stave 25:

E|--
B|--
G|--
D|--
A|--
E|--

Stave 26:

E|--
B|--
G|--
D|--
A|--
E|--

Stave 27:

E|--
B|--
G|--
D|--
A|--
E|--

Stave 28:

E|--
B|--
G|--
D|--
A|--
E|--

Stave 29:

E|--
B|--
G|--
D|--
A|--
E|--

Stave 30:

E|--
B|--
G|--
D|--
A|--
E|--

Stave 31:

E|--
B|--
G|--
D|--
A|--
E|--

Stave 32:

E|--
B|--
G|--
D|--
A|--
E|--

Stave 33:

E|--
B|--
G|--
D|--
A|--
E|--

Stave 34:

E|--
B|--
G|--
D|--
A|--
E|--

Stave 35:

E|--
B|--
G|--
D|--
A|--
E|--

Stave 36:

E|--
B|--
G|--
D|--
A|--
E|--

Stave 37:

E|--
B|--
G|--
D|--
A|--
E|--

Stave 38:

E|--
B|--
G|--
D|--
A|--
E|--

Stave 39:

E|--
B|--
G|--
D|--
A|--
E|--

Stave 40:

E|--
B|--
G|--
D|--
A|--
E|--

Stave 41:

E|--
B|--
G|--
D|--
A|--
E|--

Stave 42:

E|--
B|--
G|--
D|--
A|--
E|--

Stave 43:

E|--
B|--
G|--
D|--
A|--
E|--

Stave 44:

E|--
B|--
G|--
D|--
A|--
E|--

Stave 45:

E|--
B|--
G|--
D|--
A|--
E|--

Stave 46:

E|--
B|--
G|--
D|--
A|--
E|--

Stave 47:

E|--
B|--
G|--
D|--
A|--
E|--

Stave 48:

E|--
B|--
G|--
D|--
A|--
E|--

Stave 49:

E|--
B|--
G|--
D|--
A|--
E|--

Stave 50:

E|--
B|--
G|--
D|--
A|--
E|--

Stave 51:

E|--
B|--
G|--
D|--
A|--
E|--

Stave 52:

E|--
B|--
G|--
D|--
A|--
E|--

Stave 53:

E|--
B|--
G|--
D|--
A|--
E|--

Stave 54:

E|--
B|--
G|--
D|--
A|--
E|--

Stave 55:

E|--
B|--
G|--
D|--
A|--
E|--

Stave 56:

E|--
B|--
G|--
D|--
A|--
E|--

Stave 57:

E|--
B|--
G|--
D|--
A|--
E|--

Stave 58:

E|--
B|--
G|--
D|--
A|--
E|--

Stave 59:

E|--
B|--
G|--
D|--
A|--
E|--

Stave 60:

E|--
B|--
G|--
D|--
A|--
E|--

Stave 61:

E|--
B|--
G|--
D|--
A|--
E|--

Stave 62:

E|--
B|--
G|--
D|--
A|--
E|--

Stave 63:

E|--
B|--
G|--
D|--
A|--
E|--

Stave 64:

E|--
B|--
G|--
D|--
A|--
E|--

Stave 65:

E|--
B|--
G|--
D|--
A|--
E|--

Stave 66:

E|--
B|--
G|--
D|--
A|--
E|--

Stave 67:

E|--
B|--
G|--
D|--
A|--
E|--

Stave 68:

E|--
B|--
G|--
D|--
A|--
E|--

Stave 69:

E|--
B|--
G|--
D|--
A|--
E|--

Stave 70:

E|--
B|--
G|--
D|--
A|--
E|--

Stave 71:

E|--
B|--
G|--
D|--
A|--
E|--

Stave 72:

E|--
B|--
G|--
D|--
A|--
E|--

Stave 73:

E|--
B|--
G|--
D|--
A|--
E|--

Stave 74:

E|--
B|--
G|--
D|--
A|--
E|--

Stave 75:

E|--
B|--
G|--
D|--
A|--
E|--

Stave 76:

E|--
B|--
G|--
D|--
A|--
E|--

Stave 77:

E|--
B|--
G|--
D|--
A|--
E|--

Stave 78:

E|--
B|--
G|--
D|--
A|--
E|--

Stave 79:

E|--
B|--
G|--
D|--
A|--
E|--

Stave 80:

E|--
B|--
G|--
D|--
A|--
E|--

Stave 81:

E|--
B|--
G|--
D|--
A|--
E|--

Stave 82:

E|--
B|--
G|--
D|--
A|--
E|--

Stave 83:

E|--
B|--
G|--
D|--
A|--
E|--

Stave 84:

E|--
B|--
G|--
D|--
A|--
E|--

Stave 85:

E|--
B|--
G|--
D|--
A|--
E|--

Stave 86:

E|--
B|--
G|--
D|--
A|--
E|--

Stave 87:

E|--
B|--
G|--
D|--
A|--
E|--

Stave 88:

E|--
B|--
G|--
D|--
A|--
E|--

Stave 89:

E|--
B|--
G|--
D|--
A|--
E|--

Stave 90:

E|--
B|--
G|--
D|--
A|--
E|--

Stave 91:

E|--
B|--
G|--
D|--
A|--
E|--

Stave 92:

E|--
B|--
G|--
D|--
A|--
E|--

Stave 93:

E|--
B|--
G|--
D|--
A|--
E|--

Stave 94:

E|--
B|--
G|--
D|--
A|--
E|--

Stave 95:

E|--
B|--
G|--
D|--
A|--
E|--

Stave 96:

E|--
B|--
G|--
D|--
A|--
E|--

Stave 97:

E|--
B|--
G|--
D|--
A|--
E|--

Stave 98:

E|--
B|--
G|--
D|--
A|--
E|--

Stave 99:

E|--
B|--
G|--
D|--
A|--
E|--

Stave 100:

E|--
B|--
G|--
D|--
A|--
E|--

Stave 101:

E|--
B|--
G|--
D|--
A|--
E|--

Stave 102:

E|--------------------------------------------------------------------------------------------
B|--------------------------------------------------------------------------------------------
G|--------------------------------------------------------------------------------------------
D|--2--------5--------7-----5--------8-----7--------------------------7-----------------------
A|--2--------5--------7-----5--------8-----7--------------------------7-----------------------
E|--0--0--0--3--0--0--5--0--3--0--0--6--0--5--0--3--3--3--3--3--3--3--5--5--5--5--5--5--5--5--

http://www.guitartabcreator.com
Guitar Tab Creator is intended to store guitar tab created through the tool. It currently does not support in-line text editing. Any text you place in here will be lost. If you need to comment on your tab, please use the "Tab Notes" section located below.