Sound will begin in 5 seconds

Swan lake

01234567891011121314151617181920212223
E
B
G
D
A
E
B
0 1 2 3 4 5 6 7 8 9 10 11 12 13 14 15 16 17 18 19 20 21 22 23
(/) Slide Up  (\) Slide Down  (h) Hammer On  (p) Pull Off  (b) Bend (r) Release (v) Vibrato

Stave 1:

E|--2--------------0--2--------2--------2-----------------------------0--------2--------------
B|--------0--2--3-----------3--------3--------0--3--0-----3--0-----------3--2--------0--2--3--
G|-----------------------------------------------------0--------------------------------------
D|--------------------------------------------------------------------------------------------
A|--------------------------------------------------------------------------------------------
E|--------------------------------------------------------------------------------------------

Stave 2:

E|--0--2--------2--------2--------------------------------------------------------------------
B|-----------3--------3--------0--3--0-----3--0-----------------------------------------0-----
G|--------------------------------------0--------------------------0--2-----0-----0--2--------
D|--------------------------------------------------------0--2--4--------------4--------------
A|--------------------------------------------------2--4--------------------------------------
E|--------------------------------------------------------------------------------------------

Stave 3:

E|--------------------------------------------------------------------------------------------
B|-----------0--2--------------------------------------------0--------------0--1--------------
G|--2--0--2-----------------------------0--2--0--------0--2--------2--0--2-----------0-----0--
D|-----------------4-----------0--2--4-----------4--------------------------------------2-----
A|--------------------2--4--------------------------------------------------------------------
E|--------------------------------------------------------------------------------------------

Stave 4:

E|-----------------2--2--------------0--2-----------2--------2-----------------------------0--
B|--1--2-----2--------------0--2--3--------------3--------3--------0--3--0-----3--0-----------
G|--------1-----------------------------------------------------------------0-----------------
D|--------------------------------------------------------------------------------------------
A|--------------------------------------------------------------------------------------------
E|--------------------------------------------------------------------------------------------

Stave 5:

E|-----------2-----------0--2--------2--------2-----------------------------------------------
B|--3--2--------0--2--3-----------3--------3-----0--3--0-----3--0-----------------------------
G|--------------------------------------------------------0--------------------0--2--0-----0--
D|--------------------------------------------------------------------0--2--4-----------4-----
A|-----------------------------------------------------------------4--------------------------
E|--------------------------------------------------------------------------------------------

Stave 6:

E|--------------------------------------------------------------------------------------------
B|--------0-----------0--2--------------------------------------------0-----------0--1-----1--
G|-----2-----2--0--2-----------------------------0--2-----0-----0--2-----2--0--2--------0-----
D|-----------------------------4--------0--2--4--------------4--------------------------------
A|--------------------------------2--4--------------------------------------------------------
E|--------------------------------------------------------------------------------------------

Stave 7:

E|-----------------------------------------------------------------------------------------------
B|--0--0-----------0--0--1-----1--0--0-----------0--0--1--------0-----------1--------0-----------
G|--------3-----3-----------0-----------3-----3-----------------------3--------------------3-----
D|-----------4-----------------------------4-----------------------------------------------------
A|-----------------------------------------------------------------------------------------------
E|-----------------------------------------------------------------------------------------------

Stave 8:

E|--------------------------2-----2--2-----2--------------------------------------2--0--------2--
B|--1--------2--------3--------2--------2-----3-----2--3-----2--3-----2--3-----2--------2--------
G|-----------------------------------------------------------------------------------------3-----
D|-----------------------------------------------------------------------------------------------
A|-----------------------------------------------------------------------------------------------
E|-----------------------------------------------------------------------------------------------

Stave 9:

E|--0--------2--0--------2--0--------2--------------0--2--------2--------2-----------------------
B|-----2-----------2-----------3--2--------0--2--3-----------3--------3-----3--------3-----------
G|--------3-----------3--------------------------------------------------------4--------4--------
D|--------------------------------------------------------------------------------4--------4--0--
A|-----------------------------------------------------------------------------------------------
E|-----------------------------------------------------------------------------------------------

Stave 10:

E|--2-----------------0--2--------2--------2--------------0--2--------2--------------------------
B|-----------0--2--3-----------3--------3--------0--2--3-----------3--------3--0-----------0-----
G|-----------------------------------------------------------------------------------------------
D|-----------------------------------------------------------------------------------------------
A|-----------------------------------------------------------------------------------------------
E|-----------------------------------------------------------------------------------------------

							http://www.guitartabcreator.com
Note:

Yousician Swan Lake

Guitar Tab Creator is intended to store guitar tab created through the tool. It currently does not support in-line text editing. Any text you place in here will be lost. If you need to comment on your tab, please use the "Tab Notes" section located below.