Sound will begin in 5 seconds

d1g1

01234567891011121314151617181920212223
E
B
G
D
A
E
B
0 1 2 3 4 5 6 7 8 9 10 11 12 13 14 15 16 17 18 19 20 21 22 23
(/) Slide Up  (\) Slide Down  (h) Hammer On  (p) Pull Off  (b) Bend (r) Release (v) Vibrato

Stave 1:

E|------------------------------------------------------------------------------------------
B|--9--9--7-----7--10--9--9--7-----7-----------------------------------------------------4--
G|-----------9------------------9-----7-----4--4-----4--6--4-----------4--4-----4-----6-----
D|---------------------------------------6--------6-----------4--4--6--------6-----6--------
A|------------------------------------------------------------------------------------------
E|------------------------------------------------------------------------------------------

Stave 2:

E|-----------------------------------------------
B|-----------------------------------------------
G|-----------------------------------------------
D|--6--4--6--4--------------5--4--5--7--5--4-----
A|--------------7--4--4--7--------------------7--
E|-----------------------------------------------

Stave 3:

E|--
B|--
G|--
D|--
A|--
E|--

							http://www.guitartabcreator.com
Note:
Guitar Tab Creator is intended to store guitar tab created through the tool. It currently does not support in-line text editing. Any text you place in here will be lost. If you need to comment on your tab, please use the "Tab Notes" section located below.