Sound will begin in 5 seconds

off

01234567891011121314151617181920212223
E
B
G
D
A
E
B
0 1 2 3 4 5 6 7 8 9 10 11 12 13 14 15 16 17 18 19 20 21 22 23
Song Science #1: How Pros Use 6 Chords to Write Hit Songs
(/) Slide Up  (\) Slide Down  (h) Hammer On  (p) Pull Off  (b) Bend (r) Release (v) Vibrato

Stave 1:

E|-----------------------------------------------------------------------------------------------------------------
B|-----------------------------------------------------------------------------------------------------------------
G|--7/9--7-----------7--9-----11/12--11--7--9-----12/14--16--14--12--14--12--9--14/16--14--12------12--14--12--16--
D|----------9--7--9----------------------------------------------------------------------------14------------------
A|-----------------------------------------------------------------------------------------------------------------
E|-----------------------------------------------------------------------------------------------------------------

Stave 2:

E|-----------------------------------------------------------------15--17--15--------------15------------------
B|--12--15--12--10--12--10/12-----12--17--12--10--12--10/12h15p12--------------17--15--15------17--17--12--15--
G|-------------------------------------------------------------------------------------------------------------
D|-------------------------------------------------------------------------------------------------------------
A|-------------------------------------------------------------------------------------------------------------
E|-------------------------------------------------------------------------------------------------------------

Stave 3:

E|--------------------------------------------------12--12/15--12--17--
B|--17--12--15--13--12------------------17--12--15---------------------
G|----------------------12--14--12--11---------------------------------
D|---------------------------------------------------------------------
A|---------------------------------------------------------------------
E|---------------------------------------------------------------------

Stave 4:

E|--20--19--15--
B|--------------
G|--------------
D|--------------
A|--------------
E|--------------

Stave 5:

E|--19--15--12--17--15--19--23--19--15--12--19--15--
B|--------------------------------------------------
G|--------------------------------------------------
D|--------------------------------------------------
A|--------------------------------------------------
E|--------------------------------------------------

Stave 6:

E|--19--15------15--17--15------15--20--15------15--17--15----------17----------15----------17------------------
B|----------17--------------17--------------17--------------15--17------17--17------17--17------17--15--17--17--
G|--------------------------------------------------------------------------------------------------------------
D|--------------------------------------------------------------------------------------------------------------
A|--------------------------------------------------------------------------------------------------------------
E|--------------------------------------------------------------------------------------------------------------

Stave 7:

E|-------------12--------------12----------12--10/12--12--15--12------17------15------
B|--12/13--12------15--12--15------15--15-------------------------12------12------12--
G|------------------------------------------------------------------------------------
D|------------------------------------------------------------------------------------
A|------------------------------------------------------------------------------------
E|------------------------------------------------------------------------------------

http://www.guitartabcreator.com
Guitar Tab Creator is intended to store guitar tab created through the tool. It currently does not support in-line text editing. Any text you place in here will be lost. If you need to comment on your tab, please use the "Tab Notes" section located below.