Sound will begin in 5 seconds

off

01234567891011121314151617181920212223
E
B
G
D
A
E
B
0 1 2 3 4 5 6 7 8 9 10 11 12 13 14 15 16 17 18 19 20 21 22 23
Song Science #1: How Pros Use 6 Chords to Write Hit Songs
(/) Slide Up  (\) Slide Down  (h) Hammer On  (p) Pull Off  (b) Bend (r) Release (v) Vibrato

Stave 1:

E|-------------------------------------
B|---------------------------12\10--8--
G|------------------7--9/12------------
D|---------7--9--7---------------------
A|--7--10------------------------------
E|-------------------------------------

Stave 2:

E|--12--12--12--12--14--14--14--14--15--15--15--15/17--
B|-----------------------------------------------------
G|-----------------------------------------------------
D|-----------------------------------------------------
A|-----------------------------------------------------
E|-----------------------------------------------------

Stave 3:

E|--7--5--3--7/8--
B|----------------
G|----------------
D|----------------
A|----------------
E|----------------

Stave 4:

E|--7--5--3--5--5/7--5--3--------7--5--3-----------
B|-------------------------------------------------
G|----------------------------------------4--2--4--
D|-------------------------------------------------
A|-------------------------------------------------
E|-------------------------------------------------

Stave 5:

E|--12--12--15----------------------------------------------------------------------------------------------
B|--------------13/15--12--12----------------------------------12--15---------12--15---------12-------------
G|-----------------------------14--12---------12--------14p12----------14p12----------14p12------14--12--9--
D|-------------------------------------12/14----------------------------------------------------------------
A|----------------------------------------------------------------------------------------------------------
E|----------------------------------------------------------------------------------------------------------

http://www.guitartabcreator.com
Guitar Tab Creator is intended to store guitar tab created through the tool. It currently does not support in-line text editing. Any text you place in here will be lost. If you need to comment on your tab, please use the "Tab Notes" section located below.