Sound will begin in 5 seconds

The Wand of Youth No.1 p.2 - Bass

01234567891011121314151617181920212223
E
B
G
D
A
E
B
0 1 2 3 4 5 6 7 8 9 10 11 12 13 14 15 16 17 18 19 20 21 22 23
Song Science #1: How Pros Use 6 Chords to Write Hit Songs
(/) Slide Up  (\) Slide Down  (h) Hammer On  (p) Pull Off  (b) Bend (r) Release (v) Vibrato

Stave 1:

G|---10-9-7-----------|-----10-9-10-7-7----10-10-
D|----------10-10-----|-----------------10-------
A|-8------------------|-8-8----------------------
E|----------------8-8-|--------------------------

Stave 2:

G|-14-13-14-14-10----------|----14-------14-14-------
D|----------------12-------|-------14-14-------14-14-
A|-------------------10-10-|-12----------------------
E|-------------------------|-------------------------

Stave 3:

G|-------------12-13-14-12-|-11----12-----------------10-
D|-11----12-14-------------|----12----------10---7-10----
A|----12-------------------|----------13-10----8---------
E|-------------------------|-----------------------------

Stave 4:

G|-10-8-------10-9----9-10-|---------13/15-13----
D|------11-10------10------|------------------15-
A|-------------------------|-8-6-----------------
E|-------------------------|-----9-8-------------

Stave 5:

G|---------------------------------------8-
D|-13-------13-11-----11-10-----10-8-8-----
A|-------11---------9---------8--------6---
E|----11----------9---------8--------------

Stave 6:

G|---8---8---9---9---12----9-|----14----14----------12----14----
D|----------------------10---|-15----15----12-14-------15----15-
A|-6---6---7---7---7---------|-------------------15-------------
E|---------------------------|----------------------------------

Stave 7:

G|-10-------|-----10-9-10-------
D|----------|-------------------
A|----8-8-8-|-8-8---------8-8-8-
E|----------|-------------------

http://www.guitartabcreator.com
Guitar Tab Creator is intended to store guitar tab created through the tool. It currently does not support in-line text editing. Any text you place in here will be lost. If you need to comment on your tab, please use the "Tab Notes" section located below.