Sound will begin in 5 seconds

Jimi Hendrix - Little Wing

01234567891011121314151617181920212223
E
B
G
D
A
E
B
0 1 2 3 4 5 6 7 8 9 10 11 12 13 14 15 16 17 18 19 20 21 22 23
Song Science #1: How Pros Use 6 Chords to Write Hit Songs
(/) Slide Up  (\) Slide Down  (h) Hammer On  (p) Pull Off  (b) Bend (r) Release (v) Vibrato

Stave 1:

G|----------------------12--12\0-----------------------------
D|-----------------------------------------------------------
A|--7--7--7--7--10--10------------12--12--12--7--7--7--7--5--
E|-----------------------------------------------------------

Stave 2:

G|----------------------------------------------------------------
D|--------------------------------------3--5--5\3-----------------
A|-----------------------------3--3--3-------------------3--3--3--
E|--7--7--7--6--6--6--5--5--5----------------------1--1-----------

Stave 3:

G|--------------------------------------------------------------------------------
D|-----------------------------------------5--5--5--5--5--7--7--7--7--------------
A|--5--5--5--5--5--5--5--5--7--7--7--7--7-----------------------------7--5--5--5--
E|--------------------------------------------------------------------------------

Stave 4:

G|----------------------------------------------------12-----------------------
D|-----------------------------------------------------------------------------
A|-----------------------------3--3--3--3--8--10--10------9--8--8--8--8--8-----
E|--7--7--7--7--6--6--6--5--5-----------------------------------------------1--

Stave 5:

G|-----------------------------------------------
D|-----------------------------------------------
A|--3--3--3--3--3--5--5--5--5--5--5--5--5--5--5--
E|-----------------------------------------------

Stave 6:

G|--------------------------------------------------
D|-----------------5--5--5-----5--5--5--5--5--5--7--
A|--7--7--7--7--7-----------------------------------
E|--------------------------3-----------------------

Stave 7:

G|-----------------------------------------------
D|--7--7--7--------7--7--7--7--------------------
A|-----------5--7--------------7--7--7-----7--7--
E|--------------------------------------7--------

Stave 8:

G|----------------------------------------------------------
D|-------------------------------------------------------2--
A|-----------7/9-----------------------------3--3--3--3-----
E|--7--7--7-------7--7--7--6--5--5--5--5--5-----------------

Stave 9:

G|--------------------------------------------
D|--------------------3-----------------------
A|-----------------3-----3-----3--3--3--3--3--
E|--3--3--3--3--1-----------1-----------------

Stave 10:

G|--------------------------------------------------------------------------------
D|-----------7--7--7--7-----------------------------------------5--5--5--5--5--6--
A|--5--5--5--------------5--5--5--5--5--5--7--7--7--7--7--7--7--------------------
E|--------------------------------------------------------------------------------

Stave 11:

G|--------------------------
D|--7--7--7--9--------------
A|--------------7--7--7--5--
E|--------------------------

http://www.guitartabcreator.com
Guitar Tab Creator is intended to store guitar tab created through the tool. It currently does not support in-line text editing. Any text you place in here will be lost. If you need to comment on your tab, please use the "Tab Notes" section located below.