Sound will begin in 5 seconds

Estudo de intervalos - 5as

01234567891011121314151617181920212223
E
B
G
D
A
E
B
0 1 2 3 4 5 6 7 8 9 10 11 12 13 14 15 16 17 18 19 20 21 22 23
Song Science #1: How Pros Use 6 Chords to Write Hit Songs
(/) Slide Up  (\) Slide Down  (h) Hammer On  (p) Pull Off  (b) Bend (r) Release (v) Vibrato

Stave 1:

G|-----------------------------2-----4-----5--
D|-----------2-----4-----5--------2-----4-----
A|-----5--------2-----3-----5-----------------
E|--3-----5-----------------------------------

Stave 2:

G|--5-----4-----2-----------------------------
D|-----4-----2--------5-----4-----2-----------
A|-----------------5-----3-----2--------5-----
E|-----------------------------------5-----3--

Stave 3:

G|-----------------------------4-----5-----7--
D|-----------4-----5-----7--------4-----5-----
A|-----7--------------5-----7-----------------
E|--5-----7-----8-----------------------------

Stave 4:

G|--7-----5-----4-----------------------------
D|-----5-----4--------7-----5-----4-----------
A|-----------------7-----5--------------7-----
E|-----------------------------8-----7-----5--

Stave 5:

G|---------------------------------------7-----9--
D|-------------------7-----9-----10---------7-----
A|-----9-----10---------7-----9------10-----------
E|--7-----8------10-------------------------------

Stave 6:

G|--9-----7---------------------------------------
D|-----7---------10-----9-----7-------------------
A|-----------10------9-----7---------10-----9-----
E|-------------------------------10------8-----7--

Stave 7:

G|---------------------------------7-----9-----11--
D|-------------7-----9-----10---------7-----9------
A|-----10---------7-----9------10------------------
E|--8------10--------------------------------------

Stave 8:

G|--11-----9-----7---------------------------------
D|------9-----7---------10-----9-----7-------------
A|------------------10------9-----7---------10-----
E|--------------------------------------10------8--

Stave 9:

G|------------------------------------9-----11------12--
D|--------------------10------12---------9------10------
A|------12------9--9------10------12--------------------
E|--10------12------------------------------------------

Stave 10:

G|--12------11-----9------------------------------------
D|------10------9---------12------10-----9--------------
A|--------------------12------10------9---------12------
E|------------------------------------------12------10--

Stave 11:

G|--------------------------------------11------12------14--
D|----------------------12------14------------------12------
A|------14------15----------12------14------15--------------
E|--12------14------15--------------------------------------

Stave 12:

G|--14------12------11--------------------------------------
D|------12------------------14------12----------------------
A|--------------15------14------12----------15------14------
E|--------------------------------------15------14------12--

Stave 13:

G|-----------------------------------2-----4--
D|-----------------2-----4-----5--------2-----
A|-----3-----5--------2-----3-----5-----------
E|--2-----3-----5-----------------------------

Stave 14:

G|--4-----2-----------------------------------
D|-----2--------5-----4-----2-----------------
A|-----------5-----3-----2--------5-----3-----
E|-----------------------------5-----3-----2--

http://www.guitartabcreator.com
Guitar Tab Creator is intended to store guitar tab created through the tool. It currently does not support in-line text editing. Any text you place in here will be lost. If you need to comment on your tab, please use the "Tab Notes" section located below.