Sound will begin in 5 seconds

Escala maior - tom G

01234567891011121314151617181920212223
E
B
G
D
A
E
B
0 1 2 3 4 5 6 7 8 9 10 11 12 13 14 15 16 17 18 19 20 21 22 23
Song Science #1: How Pros Use 6 Chords to Write Hit Songs
(/) Slide Up  (\) Slide Down  (h) Hammer On  (p) Pull Off  (b) Bend (r) Release (v) Vibrato

Stave 1:

G|--------------------------2--4--5--
D|-----------------2--4--5-----------
A|--------2--3--5--------------------
E|--3--5-----------------------------

Stave 2:

G|--------------------------4--5--7--
D|-----------------4--5--7-----------
A|-----------5--7--------------------
E|--5--7--8--------------------------

Stave 3:

G|--------------------------------7--9--
D|----------------------7--9--10--------
A|------------7--9--10------------------
E|--7--8--10----------------------------

Stave 4:

G|-----------------------------7--9--11--
D|-------------------7--9--10------------
A|---------7--9--10----------------------
E|--8--10--------------------------------

Stave 5:

G|--------------------------------9--11--12--
D|---------------------9--10--12-------------
A|----------9--10--12------------------------
E|--10--12-----------------------------------

Stave 6:

G|----------------------------------11--12--14--
D|--------------------------12--14--------------
A|--------------12--14--15----------------------
E|--12--14--15----------------------------------

Stave 7:

G|-----------------------------2--4--
D|--------------------2--4--5--------
A|-----------2--3--5-----------------
E|--2--3--5--------------------------

http://www.guitartabcreator.com
Guitar Tab Creator is intended to store guitar tab created through the tool. It currently does not support in-line text editing. Any text you place in here will be lost. If you need to comment on your tab, please use the "Tab Notes" section located below.