Sound will begin in 5 seconds

phaneron

01234567891011121314151617181920212223
E
B
G
D
A
E
B
0 1 2 3 4 5 6 7 8 9 10 11 12 13 14 15 16 17 18 19 20 21 22 23
Song Science #1: How Pros Use 6 Chords to Write Hit Songs
(/) Slide Up  (\) Slide Down  (h) Hammer On  (p) Pull Off  (b) Bend (r) Release (v) Vibrato

Stave 1:

E|------------------------------------------------------------------
B|---------------------11--12--15--12--11---------------------------
G|-----13--12--10--12----------------------13--12--10--8--9------8--
D|-----------------------------------------------------------10-----
A|------------------------------------------------------------------
E|--0---------------------------------------------------------------

Stave 2:

E|-----------------12--13--13------------------
B|-----------------------------12--------------
G|-----13------10------------------10----------
D|---------11--------------------------11--10--
A|---------------------------------------------
E|--0------------------------------------------

Stave 3:

E|------------------------------------------------------------------
B|---------------------11--12--15--12--11---------------------------
G|-----13--12--10--12----------------------13--12--10--8--9---------
D|-----------------------------------------------------------10--8--
A|------------------------------------------------------------------
E|--0---------------------------------------------------------------

Stave 4:

E|---------------------13--17--16--------------16--23--16--13--------------
B|-----------------12----------------------15------------------15----------
G|-----13------10----------------------13--------------------------13------
D|---------11----------------------14----------------------------------14--
A|-------------------------------------------------------------------------
E|--0----------------------------------------------------------------------

http://www.guitartabcreator.com
Guitar Tab Creator is intended to store guitar tab created through the tool. It currently does not support in-line text editing. Any text you place in here will be lost. If you need to comment on your tab, please use the "Tab Notes" section located below.