Sound will begin in 5 seconds

Going 2 my way

01234567891011121314151617181920212223
E
B
G
D
A
E
B
0 1 2 3 4 5 6 7 8 9 10 11 12 13 14 15 16 17 18 19 20 21 22 23
Song Science #1: How Pros Use 6 Chords to Write Hit Songs
(/) Slide Up  (\) Slide Down  (h) Hammer On  (p) Pull Off  (b) Bend (r) Release (v) Vibrato

Stave 1:

E|-------------------------------------------------------
B|-------------------------------------------------------
G|-------------------------------------------------------
D|-------------------------------------------------------
A|-------------------------------------------------------
E|--3h5--5--5-----3h5--5--5-----1h3--3--3-----3h5--5--5--

Stave 2:

E|--------------------------------------------------------
B|--------------------------------------------------------
G|--------------------------------------------------------
D|--------8--------8--------3--------5--------5--------5--
A|-----8--------8--------3--------5--------5--------5-----
E|--6--------6--------1--------3--------3--------3--------

Stave 3:

E|-----------------------------
B|-----------------------------
G|-----------------------------
D|--------3--------3--------5--
A|-----3--------3--------5-----
E|--1--------1--------3--------

Stave 4:

E|--7--9--10--9--------7--9--10--9--10--12--12--12--10--9v--
B|---------------7------------------------------------------
G|----------------------------------------------------------
D|----------------------------------------------------------
A|----------------------------------------------------------
E|----------------------------------------------------------

Stave 5:

E|-------------
B|--9--10--12--
G|-------------
D|-------------
A|-------------
E|-------------

Stave 6:

E|-----------------------------------------------
B|-----------------------------------------------
G|--------9--------6--------2--------5--------4--
D|-----9--------6--------2--------5--------4-----
A|--7--------4--------0--------3--------2--------
E|-----------------------------------------------

Stave 7:

E|--------------------------
B|--------------------------
G|-----7-----7-----7-----7--
D|--0-----0-----0-----0-----
A|--------------------------
E|--------------------------

http://www.guitartabcreator.com
Guitar Tab Creator is intended to store guitar tab created through the tool. It currently does not support in-line text editing. Any text you place in here will be lost. If you need to comment on your tab, please use the "Tab Notes" section located below.