Sound will begin in 5 seconds

once upon a time

01234567891011121314151617181920212223
E
B
G
D
A
E
B
0 1 2 3 4 5 6 7 8 9 10 11 12 13 14 15 16 17 18 19 20 21 22 23
Song Science #1: How Pros Use 6 Chords to Write Hit Songs
(/) Slide Up  (\) Slide Down  (h) Hammer On  (p) Pull Off  (b) Bend (r) Release (v) Vibrato

Stave 1:

E|------20--15-----13--20-------------13--20--22--20--15--13---------20--15-----13--20-------------13--20--
B|--13---------------------13-----13-----------------------------13---------------------13-----13----------
G|---------------------------------------------------------------------------------------------------------
D|---------------------------------------------------------------------------------------------------------
A|---------------------------------------------------------------------------------------------------------
E|---------------------------------------------------------------------------------------------------------

Stave 2:

E|--22--20--15--13--------------------------------------------12-----11--10--8----------------------------
B|----------------------------------13--10--8--6--5--6--8--------------------------------13--10--8--6--8--
G|---------------------------------------------------------------------------------7----------------------
D|---------------------8--9--10---------------------------------------------------------------------------
A|--------------------------------------------------------------------------------------------------------
E|--------------------------------------------------------------------------------------------------------

Stave 3:

E|-------------------------------------------------------------------12-----11--10--8----------------------
B|--10-------------------------------------13--10--8--6--5--6--8--------------------------------13--10--8--
G|------9-----12-----12--10--9--10--------------------------------------------------------7----------------
D|----------------------------------10---------------------------------------------------------------------
A|---------------------------------------------------------------------------------------------------------
E|---------------------------------------------------------------------------------------------------------

Stave 4:

E|----------------------------------------20------------------------------------------18--17--------------
B|--6--8--10----------------------------------18--20--18------18--20--18------18--20----------20--18------
G|------------9-----12-----12--10--9--10------------------16--------------15--------------------------17--
D|--------------------------------------------------------------------------------------------------------
A|--------------------------------------------------------------------------------------------------------
E|--------------------------------------------------------------------------------------------------------

http://www.guitartabcreator.com
Guitar Tab Creator is intended to store guitar tab created through the tool. It currently does not support in-line text editing. Any text you place in here will be lost. If you need to comment on your tab, please use the "Tab Notes" section located below.