Sound will begin in 5 seconds

Biffy Clyro Mountains Bass tab (tuning half a step down)

01234567891011121314151617181920212223
E
B
G
D
A
E
B
0 1 2 3 4 5 6 7 8 9 10 11 12 13 14 15 16 17 18 19 20 21 22 23
Song Science #1: How Pros Use 6 Chords to Write Hit Songs
(/) Slide Up  (\) Slide Down  (h) Hammer On  (p) Pull Off  (b) Bend (r) Release (v) Vibrato

Stave 1:

E|-----------------------------------------------------------------------------------------------------
B|-----------------------------------------------------------------------------------------------------
G|-----------------------------------------------------------------------------------------------------
D|-----------------------------------------------------------------------------------------------------
A|--2--2--2--2--2--2-----------------------------5--5--0--2--2--2--2--2--2-----------------------------
E|--------------------0--0--1--3--3--3--3--3--3-----------------------------0--0--1--3--3--3--3--3--3--

Stave 2:

E|-------------------------------------------------------------------------------------------------------------------
B|-------------------------------------------------------------------------------------------------------------------
G|-------------------------------------------------------------------------------------------------------------------
D|-------------------------------------------------------------------------------------------------------------------
A|--5--5--5-----------------------5--5--0--2--2--2--2--2--2--5--5--5-----------------------5--5--0--2--2--2--2--2--2\
E|-----------5--5--5--5--5--5--3--------------------------------------5--5--5--5--5--5--3----------------------------

Stave 3:

E|----------------------------------------------------------------------------------------------------
B|----------------------------------------------------------------------------------------------------
G|----------------------------------------------------------------------------------------------------
D|----------------------------------12--------------------------------------------12------------------
A|----4--4--4--5--5--5------------------------------4--4--4--5--5--5----------------------------------
E|----------------------10--10--10------10--10--10--------------------10--10--10------10--10--10--10--

Stave 4:

E|---------------------------------------------
B|---------------------------------------------
G|---------------------------------------------
D|-----------------------------9---------------
A|----\4--4--0--2--2--2------------------------
E|-----------------------7--7-----7--7--7--15--

Stave 5:

E|------------------------------------------------------------------------------------------
B|------------------------------------------------------------------------------------------
G|------------------------------------------------------------------------------------------
D|------------------------------------------------------------------------------------------
A|----------------------------------------10--10--10--10--10--5--5--5--5--------------------
E|----5--5--5--5--5--5--7--7--7--7--7--7----------------------------------0--5--5--5--5--5--

Stave 6:

E|---------------------------------------------------------------------------------
B|---------------------------------------------------------------------------------
G|---------------------------------------------------------------------------------
D|---------------------------------------------------------------------------------
A|----------------------10--10--10--10--10--5--5--5--5--5--5-----------------------
E|----7--7--7--7--7--7----------------------------------------5--5--5--5--0--5--6--

Stave 7:

E|---------------------------------------------------------------------
B|---------------------------------------------------------------------
G|---------------------------------------------------------------------
D|---------------------------------------------------------------------
A|----------------------10--10--10--10--10--5--5--5--------------------
E|----7--7--7--7--7--7-------------------------------0--5--5--5--5--5--

Stave 8:

E|---------------------------------------------------------
B|---------------------------------------------------------
G|---------------------------------------------------------
D|---------------------------------------------------------
A|----------------------10--10--10--10--10--5--5--5--5--5--
E|----7--7--7--7--7--7-------------------------------------

Stave 9:

E|----
B|----
G|----
D|----
A|----
E|----

http://www.guitartabcreator.com
Guitar Tab Creator is intended to store guitar tab created through the tool. It currently does not support in-line text editing. Any text you place in here will be lost. If you need to comment on your tab, please use the "Tab Notes" section located below.