Sound will begin in 5 seconds

Only Joking Solo

01234567891011121314151617181920212223
E
B
G
D
A
E
B
0 1 2 3 4 5 6 7 8 9 10 11 12 13 14 15 16 17 18 19 20 21 22 23
Song Science #1: How Pros Use 6 Chords to Write Hit Songs
(/) Slide Up  (\) Slide Down  (h) Hammer On  (p) Pull Off  (b) Bend (r) Release (v) Vibrato

Stave 1:

E|--17--17b19r17------------------------14--12--10--9-----9--10--10b12-----10--9--10b12-----10--9--10--9--
B|----------------17b19-----17--15--17--------------------------------------------------------------------
G|--------------------------------------------------------------------------------------------------------
D|--------------------------------------------------------------------------------------------------------
A|--------------------------------------------------------------------------------------------------------
E|--------------------------------------------------------------------------------------------------------

Stave 2:

E|-----------------------------------------------------------------------------------------------------------
B|--12--10--10--12--12b14--12--12-----10--9--10--12--10--9-----10---------10---------------------------------
G|-----------------------------------------------------------------9----------9------9-----7--7--6--6--9--9--
D|--------------------------------------------------------------------11---------11--------------------------
A|-----------------------------------------------------------------------------------------------------------
E|-----------------------------------------------------------------------------------------------------------

Stave 3:

E|--------------------------------------------------------------------9--10b12--10--9--------------
B|---------------------------------------------------------9--10--12-------------------10----------
G|--7--6-----4--4/6---------------------------------9--11----------------------------------9h11p9--
D|--------7------------------------------9--11--12-------------------------------------------------
A|-------------------------9-----11--12------------------------------------------------------------
E|-------------------------------------------------------------------------------------------------

Stave 4:

E|------------------------------------------------------------------------------------------------------
B|----------------10--12--12b14r12--10------10-------------------------------5--7--5--------------------
G|--9--11--11---------------------------11------------------2--2h4--2-----6-----------6--2-----------2--
D|-------------------------------------------------------4----------------------------------------4-----
A|----------------------------------------------------5----------------------------------------5--------
E|------------------------------------------------------------------------------------------------------

Stave 5:

E|----------
B|----------
G|--2h4--2--
D|----------
A|----------
E|----------

http://www.guitartabcreator.com
Guitar Tab Creator is intended to store guitar tab created through the tool. It currently does not support in-line text editing. Any text you place in here will be lost. If you need to comment on your tab, please use the "Tab Notes" section located below.