Sound will begin in 5 seconds

A mixolydian riff

Chords
01234567891011121314151617181920212223
E
B
G
D
A
E
B
0 1 2 3 4 5 6 7 8 9 10 11 12 13 14 15 16 17 18 19 20 21 22 23
Song Science #1: How Pros Use 6 Chords to Write Hit Songs
(/) Slide Up  (\) Slide Down  (h) Hammer On  (p) Pull Off  (b) Bend (r) Release (v) Vibrato

Stave 1:

E|--------------------|----------------------------------------------|-----------2--3--2-------------------
B|--------------------|--3--2--------2-------------------------------|--2--3--5-----------5--3--5/7--5--3--
G|-------2h4--2-------|--------4--2-----4--2-----2--4/6--2--4-----2--|-------------------------------------
D|--2h4----------4p2--|-----------------------4----------------4-----|-------------------------------------
A|--------------------|----------------------------------------------|-------------------------------------
E|--------------------|----------------------------------------------|-------------------------------------

Stave 2:

E|-------2--3--2-------------7p5p7p7p7------------------|------------------------------------------
B|----5-----------5--3--7p5-----------------------------|-------5----------------------------------
G|-------------------------------------------2h4--2-----|--4/6-----6\4--2--------2-----------------
D|--------------------------------------2h4----------4--|------------------4--2-----4--2-----2-----
A|------------------------------------------------------|---------------------------------4-----4--
E|------------------------------------------------------|------------------------------------------

Stave 3:

E|----------------------------------5--7--5------------------------------------------------------------------------|--
B|----------------------------------5--7--5-------5----------------------------5--7--8--8--8--7--7--5--5--------5--|--
G|---------------------2h4--2----------------4/6-----6\4--2-----------4--5--7-----------------------------7--7-----|--
D|-------------2--2h4----------4p2---------------------------4--5--7-----------------------------------------------|--
A|--2--0--2/4------------------------------------------------------------------------------------------------------|--
E|-----------------------------------------------------------------------------------------------------------------|--

Stave 4:

E|--------------------------------|---------------------------7------------------|-------------------------
B|----7--5------------------------|--------------7--9--10--9-------10--9h10p9\7--|--10--9--7h9p---------7--
G|----------6\4--2--------2h4--2--|-----6--7--9----------------------------------|-------------9--9--9-----
D|------------------4--2----------|--9-------------------------------------------|-------------------------
A|--------------------------------|----------------------------------------------|-------------------------
E|--------------------------------|----------------------------------------------|-------------------------

Stave 5:

E|-------------|--7--5-----5h7--5--|--7--5-----5h7--5--
B|----7-----7--|--------7----------|--------7----------
G|-------9-----|-------------------|-------------------
D|-------------|-------------------|-------------------
A|-------------|-------------------|-------------------
E|-------------|-------------------|-------------------

http://www.guitartabcreator.com
Guitar Tab Creator is intended to store guitar tab created through the tool. It currently does not support in-line text editing. Any text you place in here will be lost. If you need to comment on your tab, please use the "Tab Notes" section located below.