Sound will begin in 5 seconds

A Minor Pentatonic positions

01234567891011121314151617181920212223
E
B
G
D
A
E
B
0 1 2 3 4 5 6 7 8 9 10 11 12 13 14 15 16 17 18 19 20 21 22 23
Song Science #1: How Pros Use 6 Chords to Write Hit Songs
(/) Slide Up  (\) Slide Down  (h) Hammer On  (p) Pull Off  (b) Bend (r) Release (v) Vibrato

Stave 1:

E|---------------------5-8-|-------------------------8-10-|------------------------------10-12-|----
B|-----------------5-8-----|--------------------8-10------|------------------------10-13-------|----
G|-------------5-7---------|----------------7-9-----------|-------------------9-12-------------|----
D|---------5-7-------------|-----------7-10---------------|-------------10-12------------------|----
A|-----5-7-----------------|------7-10--------------------|-------10-12------------------------|----
E|-5-8---------------------|-8-10-------------------------|-10-12------------------------------|----

Stave 2:

E|---------------------------------12-15-|---------------------
B|---------------------------13-15-------|---------------------
G|---------------------12-14-------------|---------------------
D|---------------12-14-------------------|-------------14-17---
A|---------12-15-------------------------|-------15-17---------
E|---12-15-------------------------------|-15-17---------------

Stave 3:

E|-------------15-17-|-
B|-------15-17-------|-
G|-14-17-------------|-
D|-------------------|-
A|-------------------|-
E|-------------------|-

Stave 4:

E|-
B|-
G|-
D|-
A|-
E|-

http://www.guitartabcreator.com
Guitar Tab Creator is intended to store guitar tab created through the tool. It currently does not support in-line text editing. Any text you place in here will be lost. If you need to comment on your tab, please use the "Tab Notes" section located below.