Sound will begin in 5 seconds

Led Zeppelin Riffs

Chords
01234567891011121314151617181920212223
E
B
G
D
A
E
B
0 1 2 3 4 5 6 7 8 9 10 11 12 13 14 15 16 17 18 19 20 21 22 23
Song Science #1: How Pros Use 6 Chords to Write Hit Songs
(/) Slide Up  (\) Slide Down  (h) Hammer On  (p) Pull Off  (b) Bend (r) Release (v) Vibrato

Stave 1:

E|--------------------------------------------------------|--
B|--------------------------------------------------------|--
G|--------------------------------------------------------|--
D|-----------------9-----------9-----------9-----------9--|--
A|-----5-----5-----7-----------7-----------7-----------7--|--
E|--7-----7-----0--0--0--0--0--0--0--0--0--0--0--0--0--0--|--

Stave 2:

E|----------------------------------------------------|--
B|----------------------------------------------------|--
G|----------------------------------------------------|--
D|--------------0--1--2--------------------0--1--2----|--
A|--------0--3--------------0--0--0--0--3-------------|--
E|----3b-----------------3--------------------------3b|--

Stave 3:

E|------------------------------|-------------------------|--
B|------------------------------|-------------------------|--
G|---------------2b2p1--2p1-----|---------------2b2p1--2--|--
D|-------0h2-----------------2--|-------0h2---------------|--
A|--0h2-------------------------|--0h2--------------------|--
E|------------0-----------------|------------0------------|--

Stave 4:

E|--------------------------------------------|------------------------------------------|--
B|-----------------------------------7--5--7--|---------------------------------7--5--7--|--
G|-----------------------------------7--6--7--|---------------------------------7--6--7--|--
D|-----------------------------------7--7--7--|---------------------------------7--7--7--|--
A|-----------------------------------5--7--5--|---------------------------------5--7--5--|--
E|----0--0--0--0----0--0--0--0----0-----5-----|--0--0--0--0----0--0--0--0----0-----5-----|--

Stave 5:

E|-------------------------------------|--
B|--0--0--0--0--0--0--0--0--8--------8--|--
G|-------------------------7--x--x--7--|--
D|-------------------------6--x--x--6--|--
A|-------------------------7--x--x--7--|--
E|--0--0--4--4--5--5--7--0--------------|--

Stave 6:

E|--------------------------------------------------|--
B|--------------------------------------------------|--
G|--------------------------------------------------|--
D|--7--7--5---------------5-------7-----7--------7--|--
A|-------------------5h7-----5h7-----4-----5--7-----|--
E|-----------7--8\5---------------------------------|--

Stave 7:

E|------------------------------------------------|------------------------------------------------------
B|----3p0--0--3p0--0--3--3b--3p0--0--3p0--0-------|--3p0--0--3--3b--3--0---------------------------------
G|-------------------------------------------0--2b|-----------------------2p0--2p1--1--2p1--1--2--2b--1--
D|------------------------------------------------|---------------------------------------------------2--
A|------------------------------------------------|---------------------------------------------------2--
E|------------------------------------------------|---------------------------------------------------0--

Stave 8:

E|----------------------------------------------------5--5--5-----5--|--
B|----------------------------------------------------5--5--7--7--5--|--
G|----------------------------------------------------6--6--7--7--6--|--
D|----------------------------------------------------7--7--7--7--7--|--
A|-----3-----3--4--5--------------3-------------------7--7--5--5--7--|--
E|--5-----5-----------3--3--3--5-----5----3--5--3--5--5--5--5-----5--|--

Stave 9:

E|--------------------------------------------0--0----0--0-----|--
B|--------------------------------------------2--0----0--2-----|--
G|--------------------------------------------2--1----1--2-----|--
D|---------------4------------------4---------2--2----2--2-----|--
A|--------------------------------------------0--2----2--0-----|--
E|--2----2--2-------2----2----2--2-----2---------0----0--------|--

Stave 10:

E|---------------------------5------
B|---------------------7------5------
G|---------------------7------6------
D|---------------------7--x--3--7------
A|-----7--5-----5--x--3--5------7------
E|--0--------7---------------5------

Stave 11:

E|---------------10--------------------------------------
B|-------------------10b10--8-----8----/10---------------
G|----9b7-----7----------------9------------7----\9------
D|---------9-----------------------------------------12--
A|-------------------------------------------------------
E|-------------------------------------------------------

Stave 12:

E|-------------------------------------------------------------------------
B|--------------------------5-------------------------------------------2--
G|-----------------------7-----5h7p5--------5---------------------------2--
D|-----5--6--7-----5--7---------------7--7-----7--5h7--7----------------2--
A|--7-----------7-------------------------------------------5--7-----5--0--
E|----------------------------------------------------------------8--------

Stave 13:

E|----------------------------------------------------|--
B|----9--9--------------------------------------------|--
G|----9--9--------7-----7-----------------------------|--
D|----9--7-----7-----7-----7-----4--7-----------------|--
A|----7--5--5-----------------5--------------4--5--6--|--
E|----0--0--------------------------------------------|--

Stave 14:

E|----------------------------------------------------------------------------
B|--17--17--15--17/15----------------17--17--15--17/15--12------12---------9--
G|---------------------14--12-------------------------------14------14\13--9--
D|-----------------------------14\0----------------------------------------9--
A|----------------------------------------------------------------------------
E|----------------------------------------------------------------------------

http://www.guitartabcreator.com
Guitar Tab Creator is intended to store guitar tab created through the tool. It currently does not support in-line text editing. Any text you place in here will be lost. If you need to comment on your tab, please use the "Tab Notes" section located below.