Sound will begin in 5 seconds

"Last goodbye" undertale

Chords
01234567891011121314151617181920212223
E
B
G
D
A
E
B
0 1 2 3 4 5 6 7 8 9 10 11 12 13 14 15 16 17 18 19 20 21 22 23
Song Science #1: How Pros Use 6 Chords to Write Hit Songs
(/) Slide Up  (\) Slide Down  (h) Hammer On  (p) Pull Off  (b) Bend (r) Release (v) Vibrato

Stave 1:

E|-----------------------------------------------------------------------------------------
B|-----------------------------------------------------------------------------------------
G|----------------------------------15/----------------------------------------------------
D|------16--13------------------11-----16---------16--13------------------11--11--9--8--9--
A|--------------16--14--13--14----------------------------16--14--13--14-------------------
E|--14----------------------------------------16-------------------------------------------

Stave 2:

E|--------------------------------------------------------------------------------------------
B|--------------------------------------------------------------------------------------------
G|----------------------------------15/-------------------------------------------------------
D|------16--13------------------11-----16---------16--13--------------13--14--14--13----------
A|--------------16--14--13--14----------------------------16--14--16------------------16--14--
E|--14----------------------------------------16----------------------------------------------

Stave 3:

E|---------------------------------------------------------------------------------------------------------
B|---------------------------------------------------------------------------------------------------------
G|-------------------------13--11--------------------------------------------------------------------------
D|------16-------------16----------13--11--13h11h9--9--9--11--13--9--11--11\13--9--11h13h11--9--9--12--11--
A|----------14---------------------------------------------------------------------------------------------
E|--14-------------14--------------------------------------------------------------------------------------

Stave 4:

E|-------------------------------------------------------------------------------------------------------
B|-------------------------------------------------------------------------------------------------------
G|-------------------------------------------------------13----------------------------------------------
D|--9--11--9--------9--11-----9--11-----9--11-----9--11------13--11--9--11--11h13h11h9---------9--9--11--
A|---------------9---------9---------9---------9----------------------------------------9--11------------
E|-------------------------------------------------------------------------------------------------------

Stave 5:

E|---------------------------------------------------------
B|---------------------------------------------------------
G|---------------------------------------------------------
D|--13--9--11--11\13--11h13h11h9--9--12--11--9--11--9--11--
A|---------------------------------------------------------
E|---------------------------------------------------------

Stave 6:

E|--
B|--
G|--
D|--
A|--
E|--

Stave 7:

E|---------------------------------------------------------------------------------------------------
B|---------------------------------------------------------------------------------------------------
G|--11----------------------------------------------9--8--8h9h8h6------------11----------------------
D|------9--11--9-----9--11--9h11h9-----------9--11-----------------11------------9--11--9-----9--11--
A|----------------9-----------------9-----9----------------------------9-------------------9---------
E|---------------------------------------------------------------------------------------------------

Stave 8:

E|------------------------------------------------------------
B|-----------------------12--11-------------------------------
G|----------------11-------------11--9--8---------------------
D|--9h11h9------------9--------------------9--11--9-----------
A|----------9----------------------------------------9--------
E|------------------------------------------------------------

Stave 9:

E|------------------------------------------------------------------------------------------------------
B|------------------------------------------------------------------------------------------------------
G|--------------------------------------------------15--------------15--------------16--------------16--
D|--16--13--15--13--16--13--15--13--16--13--15--13------13--15--13------13--15--13------13--15--13------
A|------------------------------------------------------------------------------------------------------
E|------------------------------------------------------------------------------------------------------

Stave 10:

E|------------------------------------------------------------------------------------------------------
B|----------------------------------------------------------19--------------------------19--------------
G|--------------18------16------18--19--18--16--14--16--------------20----------16--------------20------
D|--14--16--14------14------14--------------------------18------18------18--21------18------18------18--
A|------------------------------------------------------------------------------------------------------
E|------------------------------------------------------------------------------------------------------

Stave 11:

E|---------------------------------------------------------------------------------------------------------
B|---------------------------------------------------------------------------------------------------------
G|----------------------16--------------18-----------------------------------------------------------------
D|--21--18--16--18--16------16--18--16------16--19--16--20--16--16--14--18--16--14---------16--13------11--
A|-------------------------------------------------------------------------------------14----------14------
E|---------------------------------------------------------------------------------------------------------

Stave 12:

E|------------------------------------------------------------------------------------------
B|------------------------------------------------------------------------------------------
G|------------------------------------------------------------------------------------------
D|--13--11--9-----14--14-----14--14-----14--14-----14-----14--------------------------------
A|----------------14--14-----14--14-----14--14-----14-----14-----19--18---------19--18------
E|----------------12--12-----12--12-----12--12-----12-----12-------------19-------------19--

http://www.guitartabcreator.com
Guitar Tab Creator is intended to store guitar tab created through the tool. It currently does not support in-line text editing. Any text you place in here will be lost. If you need to comment on your tab, please use the "Tab Notes" section located below.