paradise - jannabi

Chords

01234567891011121314151617181920212223
E
B
G
D
A
E
B
0 1 2 3 4 5 6 7 8 9 10 11 12 13 14 15 16 17 18 19 20 21 22 23
(/) Slide Up  (\) Slide Down  (h) Hammer On  (p) Pull Off  (b) Bend (r) Release (v) Vibrato

Stave 1:

G|---------------------------------------------------------------------------------------------------------------------------------------------------------------------------------------------------------------------------------------------------2-----------2--------------------------------
D|-----3--3-----2--2--2-----3--3--3-----2--2--2--7--5-----3--3--3-----2--------------------------4\5--5--5--5--5--4/5--5--5--5--4/5--5--5--5--5--5v-----------2--5--------2--5-----------2-----------2--------2--5--------2--5-----------2--------3-----------3-----------------------------------
A|-----------3-----------3-----------3-----------------7-----------3-----------7--5--5--5--5--5---------------------------------------------------------3--3--------3--3--------------3-----------3-----3--3--------3--3--------------3-----5--5--------5--5--------------2--5--------2--5--------
E|-----------------------------------------------------------------------7--5---------------------------------------------------------------------------------------------------3--5--------3--5--------------------------------3--5--------------------------------3--3--------3--3--------------
B|------------------------------------------------------------------------------------------------------------------------------------------------------------------------------------------------------------------------------------------------------------------------------------------------

Stave 2:

G|-----------------------
D|--------------0--------
A|------16--17-----------
E|-----------------4--4--
B|--16-------------------

							http://www.guitartabcreator.com
Instruments
{"strings":[[[".",".",".",".",".",".",".",".",".",".",".",".",".",".",".",".",".",".",".",".",".",".",".",".",".",".",".",".",".",".",".",".",".",".",".",".",".",".",".",".",".",".",".",".",".",".",".",".",".",".",".",".",".",".",".",".",".",".",".",".",".",".",".",".",".",".",".",".",".",".",".",".",".",".",".",".",".",".",".",".",".",".",".",".",".",2,".",".",".",2,".",".",".",".",".",".",".",".",null,".","_"],[".",3,3,".",2,2,2,".",3,3,3,".",2,2,2,7,5,".",3,3,3,".",2,".",".",".",".",".",".",".",".",4,"\\",5,5,5,5,5,4,"/",5,5,5,5,4,"/",5,5,5,5,5,5,"v",".",".",".",2,5,".",".",2,5,".",".",".",2,".",".",".",2,".",".",2,5,".",".",2,5,".",".",".",2,".",".",3,".",".",".",3,".",".",".",".",".",".",".",".",".",null,".","_"],[".",".",".",3,".",".",".",3,".",".",".",3,".",".",".",".",".",7,".",".",".",3,".",".",".",7,5,5,5,5,5,".",".",".",".",".",".",".",".",".",".",".",".",".",".",".",".",".",".",".",".",".",".",".",3,3,".",".",3,3,".",".",".",".",3,".",".",".",3,".",3,3,".",".",3,3,".",".",".",".",3,".",5,5,".",".",5,5,".",".",".",".",2,5,".",".",2,5,null,".","_"],[".",".",".",".",".",".",".",".",".",".",".",".",".",".",".",".",".",".",".",".",".",".",".",7,5,".",".",".",".",".",".",".",".",".",".",".",".",".",".",".",".",".",".",".",".",".",".",".",".",".",".",".",".",".",".",".",".",".",".",".",".",".",3,5,".",".",3,5,".",".",".",".",".",".",".",".",".",".",3,5,".",".",".",".",".",".",".",".",".",".",3,3,".",".",3,3,".",".",null,".","_"],[".",".",".",".",".",".",".",".",".",".",".",".",".",".",".",".",".",".",".",".",".",".",".",".",".",".",".",".",".",".",".",".",".",".",".",".",".",".",".",".",".",".",".",".",".",".",".",".",".",".",".",".",".",".",".",".",".",".",".",".",".",".",".",".",".",".",".",".",".",".",".",".",".",".",".",".",".",".",".",".",".",".",".",".",".",".",".",".",".",".",".",".",".",".",".",".",".",".",null,".","_"]],[[".",".",".",".",".","."],[".",".",".",0,".","."],[".",16,17,".",".","."],[".",".",".",".",4,4],[16,".",".",".",".","."]]],"numberofstrings":5,"notes":["G","D","A","E","B"],"capo":0,"stringnotes":["G2","D2","A1","E1","B0"],"comments":["Stave 1:","Stave 2:"],"timing":[[null,null,null,null,null,null,null,null,null,null,null,null,null,null,null,null,null,null,null,null,null,null,null,null,null,null,null,null,null,null,null,null,null,null,null,null,null,null,null,null,null,null,null,null,null,null,null,null,null,null,null,null,null,null,null,null,null,null,null,null,null,null,null,null,null,null,null,null,null,null,null,null,null,null,null,null,null,null,null,null,null,null,null,null,null,null,null,null,null,null,null,null,null,null,null,null,null,null,null,null,null,null,null],[null,null,null,null,null,null]],"timingvisible":false,"tabcounter":6,"stave":1,"totalstaves":2,"instrument":"5bass","selectedtuning":"5bass","version":"13"}

Member for

1 week 6 days
About Me
idk
Submitted by madskr on Sun, 2020-06-28 00:57