Den finaste eg veit

Chords

01234567891011121314151617181920212223
E
B
G
D
A
E
B
0 1 2 3 4 5 6 7 8 9 10 11 12 13 14 15 16 17 18 19 20 21 22 23
(/) Slide Up  (\) Slide Down  (h) Hammer On  (p) Pull Off  (b) Bend (r) Release (v) Vibrato

Capo Fret 3

Stave 1:

E|-----------0--2--0h2p0--------0-----------------------------0--2--0h2p0-------------0-----0-----0-----
B|--------3---------------3--------3--2--3--------0--------3---------------3-----3/5-----------------3--
G|-----2---------------------2-----------------4--------2---------------------2----------2-----2--------
D|--0---------------------------------------4--------0--------------------------------------------------
A|------------------------------0--------2---------------------------------------0----------------------
E|------------------------------------------------------------------------------------------------------

Stave 2:

E|-----------0--2--0h2p0--------0----------------------------------------------------------
B|--------3---------------3--------3--2--3--------0-----------3--3----0--------0--------3--
G|-----2---------------------2-----------------4-----------0-----2p0--------0--------0-----
D|--0---------------------------------------4-----------2----------------0--------2--------
A|------------------------------0--------2-------------------------------------------------
E|---------------------------------------------------0-----------2----3--------------------

Stave 3:

E|-----------0--------------------------------------------------------------------0--------------------0-----------
B|--------3-----3-----3-----------2--------3--------------3-----------2--------3-----3-----3--------3-----3-----3--
G|-----2-----------2-----------2--------2-----0--------0-----------2--------2-----------2--------2-----------2-----
D|--0-----------------------2--------0--------------0-----------2--------0--------------------0--------------------
A|-----------------------0-----------------------------------0-----------------------------------------------------
E|-----------------------------------------------3-----------------------------------------------------------------

Stave 4:

E|-----------------------------------------------------------0-----------
B|-----------2-----------3-----------3-----------3--------3-----3-----3--
G|--------2-----------4-----------0-----------0--------2-----------2-----
D|-----2-----------4-----------2-----------2--------0--------------------
A|--0-----------2-----------------------0--------------------------------
E|--------------------------0--------------------------------------------

							http://www.guitartabcreator.com
Instruments
{"strings":[[[".",".",".",0,2,0,"h",2,"p",0,".",".",0,".",".",".",".",".",".",".",".",".",0,2,0,"h",2,"p",0,".",".",".",".",".",0,".",0,".",0,"."],[".",".",3,".",".",".",".",".",".",".",3,".",".",3,2,3,".",".",0,".",".",3,".",".",".",".",".",".",".",3,".",3,"/",5,".",".",".",".",".",3],[".",2,".",".",".",".",".",".",".",".",".",2,".",".",".",".",".",4,".",".",2,".",".",".",".",".",".",".",".",".",2,".",".",".",".",2,".",2,".","."],[0,".",".",".",".",".",".",".",".",".",".",".",".",".",".",".",4,".",".",0,".",".",".",".",".",".",".",".",".",".",".",".",".",".",".",".",".",".",".","."],[".",".",".",".",".",".",".",".",".",".",".",".",0,".",".",2,".",".",".",".",".",".",".",".",".",".",".",".",".",".",".",0,".",".",".",".",".",".",".","."],[".",".",".",".",".",".",".",".",".",".",".",".",".",".",".",".",".",".",".",".",".",".",".",".",".",".",".",".",".",".",".",".",".",".",".",".",".",".",".","."]],[[".",".",".",0,2,0,"h",2,"p",0,".",".",0,".",".",".",".",".",".",".",".",".",".",".",".",".",".",".",".",".",".",".","."],[".",".",3,".",".",".",".",".",".",".",3,".",".",3,2,3,".",".",0,".",".",".",3,3,".",".",0,".",".",0,".",".",3],[".",2,".",".",".",".",".",".",".",".",".",2,".",".",".",".",".",4,".",".",".",0,".",2,"p",0,".",".",0,".",".",0,"."],[0,".",".",".",".",".",".",".",".",".",".",".",".",".",".",".",4,".",".",".",2,".",".",".",".",".",".",0,".",".",2,".","."],[".",".",".",".",".",".",".",".",".",".",".",".",0,".",".",2,".",".",".",".",".",".",".",".",".",".",".",".",".",".",".",".","."],[".",".",".",".",".",".",".",".",".",".",".",".",".",".",".",".",".",".",".",0,".",".",".",2,".",".",3,".",".",".",".",".","."]],[[".",".",".",0,".",".",".",".",".",".",".",".",".",".",".",".",".",".",".",".",".",".",".",".",".",".",0,".",".",".",".",".",".",0,".",".","."],[".",".",3,".",3,".",3,".",".",".",2,".",".",3,".",".",".",".",3,".",".",".",2,".",".",3,".",3,".",3,".",".",3,".",3,".",3],[".",2,".",".",".",2,".",".",".",2,".",".",2,".",0,".",".",0,".",".",".",2,".",".",2,".",".",".",2,".",".",2,".",".",".",2,"."],[0,".",".",".",".",".",".",".",2,".",".",0,".",".",".",".",0,".",".",".",2,".",".",0,".",".",".",".",".",".",0,".",".",".",".",".","."],[".",".",".",".",".",".",".",0,".",".",".",".",".",".",".",".",".",".",".",0,".",".",".",".",".",".",".",".",".",".",".",".",".",".",".",".","."],[".",".",".",".",".",".",".",".",".",".",".",".",".",".",".",3,".",".",".",".",".",".",".",".",".",".",".",".",".",".",".",".",".",".",".",".","."]],[[".",".",".",".",".",".",".",".",".",".",".",".",".",".",".",".",".",".",".",0,".",".","."],[".",".",".",2,".",".",".",3,".",".",".",3,".",".",".",3,".",".",3,".",3,".",3],[".",".",2,".",".",".",4,".",".",".",0,".",".",".",0,".",".",2,".",".",".",2,"."],[".",2,".",".",".",4,".",".",".",2,".",".",".",2,".",".",0,".",".",".",".",".","."],[0,".",".",".",2,".",".",".",".",".",".",".",0,".",".",".",".",".",".",".",".",".","."],[".",".",".",".",".",".",".",".",0,".",".",".",".",".",".",".",".",".",".",".",".",".","."]]],"numberofstrings":6,"notes":["E","B","G","D","A","E","B"],"capo":"3","stringnotes":["E4","B3","G3","D3","A2","E2"],"comments":["Stave 1:","Stave 2:","Stave 3:","Stave 4:"],"timing":[["W","W","W","W","W","W",null,"W",null,"W","W","W","W","W","W","W","W","W","W","W","W","W","W","W","W",null,"W",null,"W","W","W","W",null,"W","W","W","W","W","W","W"],["W","W","W","W","W","W",null,"W",null,"W","W","W","W","W","W","W","W","W","W","W","W","W","W","W",null,"W","W","W","W","W","W","W","W"],["W","W","W","W","W","W","W","W","W","W","W","W","W","W","W","W","W","W","W","W","W","W","W","W","W","W","W","W","W","W","W","W","W","W","W","W","W"],["W","W","W","W","W","W","W","W","W","W","W","W","W","W","W","W","W","W","W","W","W","W","W"]],"timingvisible":false,"tabcounter":23,"stave":3,"totalstaves":4,"instrument":"6guitar","selectedtuning":"6_standard","version":"13"}

Member for

1 week 2 days
Submitted by madsda on Tue, 2020-09-15 13:49