Sound will begin in 5 seconds

Riff 1

Chords
01234567891011121314151617181920212223
E
B
G
D
A
E
B
0 1 2 3 4 5 6 7 8 9 10 11 12 13 14 15 16 17 18 19 20 21 22 23
Song Science #1: How Pros Use 6 Chords to Write Hit Songs
(/) Slide Up  (\) Slide Down  (h) Hammer On  (p) Pull Off  (b) Bend (r) Release (v) Vibrato

Stave 1:

E|-------------------------------------------------------------
B|-------------------------------------------------------------
G|-------------------------------------------------------------
D|--2-----2--10--9--6--6-----10--9--7--7-----2--3--6--6--3--2--
A|--2-----2--10--9--6--6-----10--9--7--7-----2--3--6--6--3--2--
E|--0-----0--8---7--4--4-----8---7--5--5-----0--1--4--4--1--0--

Stave 2:

E|----------------------------------------------------------
B|----------------------------------------------------------
G|--2-----2-----2-----9---8--9------9---9---13--13----------
D|--2-----2-----2-----10--9--9------9---9---9---9-----------
A|--0-----0-----0------------11-----11--11--11--11--14--14--
E|---------------------------0------0---0---0---0---12--12--

Stave 3:

E|-----------------------------------------------------------------------------------------------------
B|-----------------------------------------------------------------------------------------------------
G|--5--5--5--5--5--5--5--7--5--7--5--5--5--5--5--5--5--5--7--5--7--5--5--5--5--------------------------
D|--7--7--7--7--7--7--7--7--7--7--7--7--7--7--7--7--7--7--7--7--7--7--7--7--7-----------------5--6--6--
A|--0--0--0--0--0--0--0--------------0--0--0--0--0--0--0--------------0--0--0--0--3--4--4--7-----------
E|-----------------------------------------------------------------------------------------------------

Stave 4:

E|--------------------
B|--------------------
G|--2--2--2-----5--5--
D|--2--2--2-----5--5--
A|--0--0--0-----3--3--
E|--------------------

http://www.guitartabcreator.com
Guitar Tab Creator is intended to store guitar tab created through the tool. It currently does not support in-line text editing. Any text you place in here will be lost. If you need to comment on your tab, please use the "Tab Notes" section located below.