Sound will begin in 5 seconds

frank's hot sauce mid section

Chords
01234567891011121314151617181920212223
E
B
G
D
A
E
B
0 1 2 3 4 5 6 7 8 9 10 11 12 13 14 15 16 17 18 19 20 21 22 23
Song Science #1: How Pros Use 6 Chords to Write Hit Songs
(/) Slide Up  (\) Slide Down  (h) Hammer On  (p) Pull Off  (b) Bend (r) Release (v) Vibrato

Stave 1:

E|-------------------------------------------------------------------------------------
B|-------------------------------------------------------------------------------------
G|-------------------------------------------------------------------------------------
D|------------------------------------------------------5h2--2--2--2--2----------------
A|--0--0--0--0--0--0--0--0--3h2--2--5h2--2--2--2--2--2-------------------3h0--0--0--0--
E|-------------------------------------------------------------------------------------

Stave 2:

E|--------------------------------------------------------------------------------------
B|------------------------------10------------------12----------10----------------------
G|--9h12--12--12h9--9-------------------------------------------------------12----------
D|---------------------10h9--9------9--9--9/12--12------12--12------10--10------10--10--
A|--------------------------------------------------------------------------------------
E|--------------------------------------------------------------------------------------

Stave 3:

E|--------------------------------------------------------------------------------------
B|--------------------------------------------------------------------------------------
G|--10--10--10--10--10--10--10--10--10--10--10--10--------------------------------------
D|--10--10--10--10--10--10--------------------------7--7--7--7--7--7--------5-----3-----
A|--8---8---8---8---8---8---8---8---8---8---8---8---7--7--7--7--7--7--------5-----3-----
E|--------------------------------------------------5--5--5--5--5--5--------3-----1-----

http://www.guitartabcreator.com
Guitar Tab Creator is intended to store guitar tab created through the tool. It currently does not support in-line text editing. Any text you place in here will be lost. If you need to comment on your tab, please use the "Tab Notes" section located below.