Sound will begin in 5 seconds

The White Stripes-Dead Leaves and the Dirty Ground

01234567891011121314151617181920212223
E
B
G
D
A
E
B
0 1 2 3 4 5 6 7 8 9 10 11 12 13 14 15 16 17 18 19 20 21 22 23
Song Science #1: How Pros Use 6 Chords to Write Hit Songs
(/) Slide Up  (\) Slide Down  (h) Hammer On  (p) Pull Off  (b) Bend (r) Release (v) Vibrato

Stave 1:

E|-----------------------------------------|-----------------------------------------
B|-----------------------------------------|-----------------------------------------
G|-----------------------------------------|-----------------------------------------
D|---------------------------------2--2----|---------------------------------2--2----
A|---------------------------------0--0----|---------------------------------0--0----
E|-5v-5-5-0-3v-3-3-0-2v-2-0-1v-1-0------3v-|-5v-5-5-0-3v-3-3-0-2v-2-0-1v-1-0------3v-

Stave 2:

E|-----------------------
B|-----------------------
G|-----------------------
D|-4--4-4-3--3-3-2--2----
A|-4--4-4-3--3-3-0--0----
E|-2--2-2-1--1-1------3v-

Stave 3:

E|----------3-3-3-3--0--0-0-2--2-2---------|----------3-3-3-3--0--0-0-2--2-2---------
B|----------3-3-3-3--1--1-1-3--3-3---------|----------3-3-3-3--1--1-1-3--3-3---------
G|----------0-0-0-0--0--0-0-2--2-2---------|----------0-0-0-0--0--0-0-2--2-2---------
D|-2--2-2-2-0-0-0-0--2--2-2--------2--2----|-2--2-2-2-0-0-0-0--2--2-2--------2--2----
A|-0--0-0-0-0-0-0-0--3--3-3--------0--0----|-0--0-0-0-0-0-0-0--3--3-3--------0--0----
E|----------3-3-3-3---------------------3v-|----------3-3-3-3---------------------3v-

Stave 4:

E|--------------------------3----
B|--------------------------3----
G|--------------------------0----
D|-3--3-3-5--5-5-2--2-----3--0--2-
A|-3--3-3-5--5-5-0--0-----3--0--0-
E|-1--1-1-3--3-3------3v--1--3----

Stave 5:

E|-------------------------------------------------
B|-------0-3p--------------------------------------
G|-----0-----0----------0-----0-------0------0---0-
D|---2---------2------0-----2-------4------2---2---
A|-0----------------2h----3-----3/5------0---------
E|----------------3--------------------------------

Stave 6:

E|-------3--3-0-0-2-2--------|------3--3-0-0-2-2--------
B|-------3--3-1-1-3-3--------|------3--3-1-1-3-3--------
G|-------0--0-0-0-2-2--------|------0--0-0-0-2-2--------
D|--2--2-0--0-2-2-0-0-2--2---|-2--2-0--0-2-2-0-0-2--2---
A|--0--0-0--0-3-3-----0--0---|-0--0-0--0-3-3-----0--0---
E|-------3--3--------------3b|------3--3--------------3b

Stave 7:

E|-
B|-
G|-
D|-
A|-
E|-

http://www.guitartabcreator.com
Guitar Tab Creator is intended to store guitar tab created through the tool. It currently does not support in-line text editing. Any text you place in here will be lost. If you need to comment on your tab, please use the "Tab Notes" section located below.