Sound will begin in 5 seconds

Tenacious D-The Metal

01234567891011121314151617181920212223
E
B
G
D
A
E
B
0 1 2 3 4 5 6 7 8 9 10 11 12 13 14 15 16 17 18 19 20 21 22 23
Song Science #1: How Pros Use 6 Chords to Write Hit Songs
(/) Slide Up  (\) Slide Down  (h) Hammer On  (p) Pull Off  (b) Bend (r) Release (v) Vibrato

Stave 1:

E|--------------------------------------|-
B|--------------------------------------|-
G|--------------------------------------|-
D|--------------------------------------|-
A|-2-2-2---2-3hp2p2p2h3-2p2-2-2---3hp2-2-|-
E|-0-0-0-3b0--------------0-0-0-3b-------|-

Stave 2:

E|------------------------------------------------------
B|------------------------------------------------------
G|------------------------------------------------------
D|------------------------3--3-3-3-5h3\2-3hp2p2p2p2h3p2-
A|-2-2-2---2-3hp2p2p2h3-2p3--3-3-3----------------------
E|-0-0-0-3b0--------------1--1-1-1----------------------

Stave 3:

E|-12hp14-12hp14-12hp14-14h15p14p12-
B|----------------------------------
G|----------------------------------
D|----------------------------------
A|----------------------------------
E|----------------------------------

http://www.guitartabcreator.com
Guitar Tab Creator is intended to store guitar tab created through the tool. It currently does not support in-line text editing. Any text you place in here will be lost. If you need to comment on your tab, please use the "Tab Notes" section located below.