Sound will begin in 5 seconds

Sum 41-Fat Lip

01234567891011121314151617181920212223
E
B
G
D
A
E
B
0 1 2 3 4 5 6 7 8 9 10 11 12 13 14 15 16 17 18 19 20 21 22 23
Song Science #1: How Pros Use 6 Chords to Write Hit Songs
(/) Slide Up  (\) Slide Down  (h) Hammer On  (p) Pull Off  (b) Bend (r) Release (v) Vibrato

Stave 1:

E|-----------------------------------
B|-----------------------------------
G|-----------------------------------
D|-------6-------4-------6-------4-2-
A|-----------------------------------
E|-4-5-7---4-5-7---4-5-7---4-5-7-----

Stave 2:

E|---------------------|--------------------|--------------------|--------------------
B|---------------------|--------------------|--------------------|--------------------
G|---------------------|--------------------|--------------------|--------------------
D|--2-2--2--2-2-2-2--7-|-2-2--2--2-2-2-2--7-|-2-2--2--2-2-2-2--7-|-2-2--2--2-2-2-2--7-
A|--2-2--2--2-2-2-2--7-|-2-2--2--2-2-2-2--7-|-2-2--2--2-2-2-2--7-|-2-2--2--2-2-2-2--7-
E|--0-0--0--0-0-0-0--5-|-0-0--0--0-0-0-0--5-|-0-0--0--0-0-0-0--5-|-0-0--0--0-0-0-0--5-

Stave 3:

E|----------------|-----------------|---------------|-----------------
B|----------------|-----------------|---------------|-----------------
G|----------------|-2-2-------------|---------------|-2-2-------------
D|--2-2-2-1-2-----|-2-2-2-1-2-------|-2-2-2-1-2-----|-2-2-2-1-2-------
A|--2-2-------2-2-|-0-0-------2-----|-2-2-------2-2-|-0-0-------2-----
E|--0-0-----------|-------------4-2-|-0-0-----------|-------------4-2-

Stave 4:

E|------------------------|-------------------------
B|------------------------|-------------------------
G|------------------------|-----6-----6-------------
D|------2-----2-----2-----|-----6-----6-----7-----7-
A|------2-----2-----2-----|-4-4-4-4-4-4-----7-----7-
E|--0-0-0-0-0-0-0-0-0-0-0-|-------------5-5-5-5-5-5-

Stave 5:

E|-------------------------------|---------------------------
B|-------------------------------|---------------------------
G|--9--4-4-4--4--6-6--6-6-6-6--6-|---------------------------
D|--9--4-4-4--4--6-6--6-6-6-6--6-|-6--6-7-7--7-6-6--6-7-7--7-
A|--7--2-2-2--2--4-4--4-4-4-4--4-|-6--6-7-7--7-6-6--6-7-7--7-
E|-------------------------------|-4--4-5-5--5-4-4--4-5-5--5-

Stave 6:

E|---------------------|--------------------|-----------------------|-------------
B|---------------------|--------------------|-----------------------|-------------
G|---------------------|------------------2-|-----------------------|-------------
D|-2-2-x-x-2-2-x-x-2-x-|-2-2-x-x-2-2--2-x-2-|-2-2-x-x-2-2-x-x-x-2-x-|-2-2-x-x-2-2-
A|-2-2-x-x-2-2-x-x-2-x-|-2-2-x-x-2-2--2-x-0-|-2-2-x-x-2-2-x-x-x-2-x-|-2-2-x-x-2-2-
E|-0-0-x-x-0-0-x-x-0-x-|-0-0-x-x-0-0--0-x---|-0-0-x-x-0-0-x-x-x-0-x-|-0-0-x-x-0-0-

Stave 7:

E|-------------------------------|-----------------------------------
B|-------------------------------|-----------------------------------
G|-----9-------9-------6---------|-----9-------9-------6-----2-2-2-2-
D|---9---9---9---9---6---6-------|---9---9---9---9---6---6---2-2-2-2-
A|-7-------6-------4---------7---|-7-------6-------4---------0-0-0-0-
E|-------------------------5---5-|-------------------------5---------

http://www.guitartabcreator.com
Guitar Tab Creator is intended to store guitar tab created through the tool. It currently does not support in-line text editing. Any text you place in here will be lost. If you need to comment on your tab, please use the "Tab Notes" section located below.