Sound will begin in 5 seconds

Star Wars Theme Song

01234567891011121314151617181920212223
E
B
G
D
A
E
B
0 1 2 3 4 5 6 7 8 9 10 11 12 13 14 15 16 17 18 19 20 21 22 23
Song Science #1: How Pros Use 6 Chords to Write Hit Songs
(/) Slide Up  (\) Slide Down  (h) Hammer On  (p) Pull Off  (b) Bend (r) Release (v) Vibrato

Stave 1:

E|--------------5---------5-----------|-------------5---------5-----------
B|-----5--3p2-----5-3p2-----5-3p2-3---|-----5-3p2-----5-3p2-----5-3p2-3---
G|---2--------4---------4-----------4-|---2-------4---------4-----------4-
D|-2----------------------------------|-2---------------------------------
A|------------------------------------|-----------------------------------
E|------------------------------------|-----------------------------------

Stave 2:

E|------------10p9-------------9---------|-----------10p9-------12----
B|-----------------12-10-10-12---12----9-|----------------12-10----12-
G|-9-9-11-11------------------------11---|-9-9-11-11------------------
D|---------------------------------------|----------------------------
A|---------------------------------------|----------------------------
E|---------------------------------------|----------------------------

Stave 3:

E|-----------10p9-------------9---------|-----------10p9-------12----
B|----------------12-10-10-12---12----9-|----------------12-10----12-
G|-9-9-11-11-----------------------11---|-9-9-11-11------------------
D|--------------------------------------|----------------------------
A|--------------------------------------|----------------------------
E|--------------------------------------|----------------------------

Stave 4:

E|-------17-15-13------------------12-
B|-17-17-----------17-15-13-12--12----
G|------------------------------------
D|------------------------------------
A|------------------------------------
E|------------------------------------

http://www.guitartabcreator.com
Guitar Tab Creator is intended to store guitar tab created through the tool. It currently does not support in-line text editing. Any text you place in here will be lost. If you need to comment on your tab, please use the "Tab Notes" section located below.