Sound will begin in 5 seconds

The Pink Panther Theme Song

01234567891011121314151617181920212223
E
B
G
D
A
E
B
0 1 2 3 4 5 6 7 8 9 10 11 12 13 14 15 16 17 18 19 20 21 22 23
Song Science #1: How Pros Use 6 Chords to Write Hit Songs
(/) Slide Up  (\) Slide Down  (h) Hammer On  (p) Pull Off  (b) Bend (r) Release (v) Vibrato

Stave 1:

E|--------------------------
B|--------------------------
G|--------------------------
D|--------------------------
A|-4/5-6/7------4/5-6/7-----
E|---------7-0----------7-0-

Stave 2:

E|-------------------------------------------
B|-------------------------------------------
G|---------------------5\4-------------------
D|---------4h5-----4h5-------5-8-7v-5--------
A|-4/5-6/7-----6h7---------7----------5h7-7v-
E|-------------------------------------------

Stave 3:

E|----------------------------------
B|----------------------------------
G|---------------------5\4-----9-8v-
D|---------4h5-----4h5-------5------
A|-4/5-6/7-----6h7---------7--------
E|----------------------------------

Stave 4:

E|-------------------------------------------
B|-------------------------------------------
G|---------------------5\4-------------------
D|---------4h5-----4h5-------5-8-7v-5--------
A|-4/5-6/7-----6h7---------7----------5h7-7v-
E|-------------------------------------------

Stave 5:

E|----------------------------------------------
B|----------------------------------------------
G|---------9-7----------------------------------
D|-------------9-7-5---8\7-8\7-8\7-8\7-5--------
A|-4/5-6/7-----------7-------------------5h7-7v-
E|----------------------------------------------

http://www.guitartabcreator.com
Guitar Tab Creator is intended to store guitar tab created through the tool. It currently does not support in-line text editing. Any text you place in here will be lost. If you need to comment on your tab, please use the "Tab Notes" section located below.