Sound will begin in 5 seconds

Metallica-Seek and Destroy

01234567891011121314151617181920212223
E
B
G
D
A
E
B
0 1 2 3 4 5 6 7 8 9 10 11 12 13 14 15 16 17 18 19 20 21 22 23
Song Science #1: How Pros Use 6 Chords to Write Hit Songs
(/) Slide Up  (\) Slide Down  (h) Hammer On  (p) Pull Off  (b) Bend (r) Release (v) Vibrato

Stave 1:

E|---------------------------------|---------------------------------
B|---------------------------------|---------------------------------
G|-----7h8-7-------------------5---|-----7h8-7-------------------5---
D|-------------7h8-7-------5-----7-|-------------7h8-7-------5-----7-
A|-0-0-------0-------5-8-7---7-----|-0-0-------0-------5-8-7---7-----
E|---------------------------------|---------------------------------

Stave 2:

E|---------------------------------|---------------------------------
B|---------------------------------|---------------------------------
G|-----7h8-7-------------------5---|-----7h8-7-------------------5---
D|-------------7h8-7-------5-----7-|-------------7h8-7-------5-----7-
A|-0-0-------0-------5-8-7---7-----|-0-0-------0-------5-8-7---7-----
E|---------------------------------|---------------------------------

Stave 3:

E|-----------------|-----------------|-----------------
B|-----------------|-----------------|-----------------
G|-9-7---7---------|-9-7---7---------|-9-7---7---------
D|-----9---9-8-7\5-|-----9---9-8-7\5-|-----9---9-8-7\5-
A|-----------------|-----------------|-----------------
E|-----------------|-----------------|-----------------

Stave 4:

E|---------------------------------|---------------------------------
B|---------------------------------|---------------------------------
G|---------------------------------|---------------------------------
D|---------5h7-5-7-----------------|---------5-7-5-7-----------------
A|---------5-7-5h7---------7-5-----|---------5h7-5h7---------7-5-----
E|-0-0-0-0---------0-0-0-0-----7-6b|-0-0-0-0---------0-0-0-0-----7-6b

Stave 5:

E|---------------------------------|---------------------------------
B|---------------------------------|---------------------------------
G|---------------------------------|---------------------------------
D|---------5h7-5-7-----------------|---------5-7-5h7-----------------
A|---------5-7-5h7---------7-5-----|---------5h7-5-7---------7-5-----
E|-0-0-0-0---------0-0-0-0-----7-6b|-0-0-0-0---------0-0-0-0-----7-6b

Stave 6:

E|---------------------------------|---------------------------------
B|---------------------------------|---------------------------------
G|---------------------------------|---------------------------------
D|-----------------------------5---|-----------------------------5---
A|-------------------------------7-|-------------------------------7-
E|-0-0-0-0-0-0-0-0-0-0-0-0-7-6-----|-0-0-0-0-0-0-0-0-0-0-0-0-7-6-----

Stave 7:

E|---------------------------------|---------------------------------
B|---------------------------------|---------------------------------
G|---------------------------------|---------------------------------
D|-----------------------------5---|-----------------------------5---
A|-------------------------------7-|-------------------------------7-
E|-0-0-0-0-0-0-0-0-0-0-0-0-7-6-----|-0-0-0-0-0-0-0-0-0-0-0-0-7-6-----

Stave 8:

E|----------------------------------------------------------
B|----------------------------------------------------------
G|-5-------5-7-5-5-------5h7-5-5-------5h7-5-7-5-------------
D|-5-------5h7-5-5-------5-7-5-5-------5-7-5-----7-6-5-------
A|--0-0-0---------0-0-0---------0-0-0-----------------7-6-5-
E|----------------------------------------------------------

Stave 9:

E|------------------------------------------------------------
B|------------------------------------------------------------
G|--5-------5-7-5-5-------5-7-5-5-------5h7-5-7-5-------------
D|--5-------5h7-5-5-------5h7-5-5-------5-7-5-----7-6-5-------
A|------------------------------------------------------7-6-5-
E|----0-0-0---------0-0-0---------0-0-0-----------------------

Stave 10:

E|-----------------|-----------------|-----------------
B|-----------------|-----------------|-----------------
G|-9-7---7---------|-9-7---7---------|-9-7---7---------
D|-----9---9-8-7\5-|-----9---9-8-7\5-|-----9---9-8-7\5-
A|-----------------|-----------------|-----------------
E|-----------------|-----------------|-----------------

Stave 11:

E|-----------------------------------------------------------------------------------
B|-----------------------------------------------------------------------------------
G|-----------------------------------------------------------------------------------
D|-12-11-10---------------------------------12-11-10---------------------------------
A|-10-9--8----------------------------------10-9--8----------------------------------
E|----------0-0-0-0-0-0-0-0-0-0-0-0-0-0-0-0----------0-0-0-0-0-0-0-0-0-0-0-0-0-0-0-0-

Stave 12:

E|---------------------------------|-
B|---------------------------------|-
G|---------------------------------|-
D|---------5h7-5h7-----------------|-
A|---------5-7-5-7---------7-5-----|-
E|-0-0-0-0---------0-0-0-0-----7-6b|-

http://www.guitartabcreator.com
Guitar Tab Creator is intended to store guitar tab created through the tool. It currently does not support in-line text editing. Any text you place in here will be lost. If you need to comment on your tab, please use the "Tab Notes" section located below.